Pennywise - Waiting Chords & Tabs

 

Waiting Chords & Tabs

Pennywise Chords & Tabs

Version: 2 Type: Tab 0 ratings
1 star 2 stars 3 stars 4 stars 5 stars
comments

Waiting Tab

   
 intro:                                                                   
|----10-12-14-12-10-----10-12-14-15-14-----10-12-14-12-10---------------| 
|-12-----------------12-----------------12----------------12--12-12^-12-|
|-----------------------------------------------------------------------| 
|-----------------------------------------------------------------------| 
|-----------------------------------------------------------------------| 
|-----------------------------------------------------------------------|
 verse:                                                                  
|-----------------------------------------------------------------------| 
|-----------------------------------------------------------------------| 
|-----------------------------------------------------------------------| 
|-9----------------9-7-777777777777-9----------------9------------------| 
|-7-9-999999999999-7-5-555555555555-7-9-999999999999-7-7-777777777777---| 
|---7-777777777777--------------------7-777777777777---5-555555555555---| 
   pm ''''''''''''     ''''''''''''     ''''''''''''     ''''''''''''     
|----------------------------|                                            
|----------------------------|
|----------------------------|fill 1
|----------------------------|
|-777777777777777777777777-7-|
|-555555555555555555555555-5-|
 chorus:
|-----------------------------------------------------------------|
|-----------------------------------------------------------------|
|-----------------------------------------------------------------|
|-----------------7-7777777777777---------------------------------|
|-9-9999999999999-5-5555555555555-7-7777777777777-5-5555555555555-|
|-7-7777777777777-----------------5-5555555555555-3-3333333333333-|

|-----------------|
|-----------------|
|-----------------|fill 2
|-----------------|
|-5-5555555555555-|
|-3-3333333333333-|
 solo:
|-----------------------------------------------------------|---------------|
|---------------------7-------------------------------------|add on 2nd time|
|-------7-------7---7---7-------------7---------------------|---------------|
|-9---9---9-(0)-7-7-------(0)-7-7/9-9---9-(0)-5-7-9-7-5-(0)-|-5-7-9-7-5-(0)-|
|-9--9----------5-------------7---------------5-------------|-5-------------|
|-7---------------------------5---------------3-------------|-3-------------|
 interluge:
|---|-----------------------------------------|----add-to-end-2nd-time-----|
|add-to-start-2nd-time------------------------|----------------------------|
|---|-----------------------------------------|----------------------------|
|-9-|-----------7-------7---------------------|----------------------------|
|-7-|-9-------9-5-------5-7-------7-5-5-5-5-5-|-5-5-5-5-5-5-5-5-55555555-5-|
|---|-7-------7-----------5-------5-3-3-3-3-3-|-3-3-3-3-3-3-3-3-33333333-3-|

|-----|
|-----|end
|-----|
|-9---|
|-7-9-|
|---7-|

 order
intro x2 (2nd guitar plays verse open)
verse x2 
fill 1
chorusx2
introx1 (g2 verse open)
versex2
fill 1
chorusx2
fill 2
solox2 (g2 chorus)
interlude (bass chorus)
chorusx4
fill2
end

Questions,corrections,insults,or sexual invitations
email: afroz_r_cool@hotmail.com
and also if you want the tabs to; god save the usa,falling down or yesterdays (the
yesterdays on this site is good enough though)email me and i might tab them out
[ Tab from: http://www.guitartabs.cc/tabs/p/pennywise/waiting_tab_ver_2.html ]
Comments