Pennywise - Waiting Chords & Tabs

 

Waiting Chords & Tabs

Pennywise Chords & Tabs

Version: 1 Type: Tab 0 ratings
1 star 2 stars 3 stars 4 stars 5 stars
comments

Waiting Tab

   
-------------------------------------------------------------------------------
			     Waiting - Pennywise
-------------------------------------------------------------------------------
Tabbed by:Christ_air
Email:CHrist_air@skateboard.com

Tuning:EADGBE

Guitar 1 verse Repeat x2

e|---------------------------------------------------------------------------|
B|---0---3---5---7---5---3---0---3---5---7---8---7---0---3---5---7---5---3--0|
G|---------------------------------------------------------------------------|
D|---------------------------------------------------------------------------|
A|---------------------------------------------------------------------------|
E|---------------------------------------------------------------------------|

Guitar 2 verse
[ Tab from: http://www.guitartabs.cc/tabs/p/pennywise/waiting_tab.html ]
e|---------------------------------------------------------------------------|
B|---------------------------------------------------------------------------|
G|---------------------------------------------------------------------------|
D|---------------------------------------------------------------------------|
A|---22222222222---55555555555-/-7---2222222222---5---2----------------------|
E|---00000000000---33333333333-/-5---0000000000---3---0----------------------|

Chorus

e|---------------------------------------------------------------------------|
B|---------------------------------------------------------------------------|
G|---------------------------------------------------------------------------|
D|---------------------------------------------------------------------------|
A|---22222222---55555555---77777777---55-7---55--7--777755--75---2-----------|
E|---00000000---33333333---55555555---33-5---33--5--555577--57---0-----------|

Normal verse P.M

e|---------------------------------------------------------------------------|
B|---------------------------------------------------------------------------|
G|---------------------------------------------------------------------------|
D|--------------5------------------------------------------------------------|
A|--22222222----3----5555555555---7---2---5---2------------------------------|
E|--00000000---------3333333333---5---0---3---0------------------------------|

Then back to Chrous


| /  slide up
| \  slide down
| h  hammer-on
| p  pull-off
| ~  vibrato
| +  harmonic
| x  Mute note
=============================================================================
Comments