Pennywise - Victim Of Reality Chords & Tabs

 

Victim Of Reality Chords & Tabs

Pennywise Chords & Tabs

Version: 2 Type: Tab 0 ratings
1 star 2 stars 3 stars 4 stars 5 stars
comments

Victim Of Reality Tab

   
pennywise
victim of reality
from 'straight ahead'
tabber: Wobbler
standart tuning

very cool song,so i tabbed it out...i think its more correct than other...

little legend:
X-muted string
()-harmonic
/\-slide
b,r-bend,rebend
~-let ringggggg

intro
e|------------------------------------------------------|
B|------------------------------------------------------|
G|-------66-----------------------66----------10-10-8-7-|
D|-88-XX-66-XX-6/8\6-3-333--88-XX-66-XX-6/8\6-10-10-8-7-|
A|-88-XX-44-XX-6/8\6-3-333--88-XX-44-XX-6/8\6--8--8-6-5-|
E|-66-XX----XX-4/6\4-1-111--66-XX----XX-4/6\4-----------|

e|-------------------------------------------------------------|
B|-------------------------------------------------------------|
G|-------66--------------------------10-10-10------------------|
D|-88-XX-66-XX-6/8\6-3-333--66666666-10-10-10--\\\pickslide\\\-|
A|-88-XX-44-XX-6/8\6-3-333--66666666--8--8--8------------------|
E|-66-XX----XX-4/6\4-1-111--44444444---------------------------|

pre-verse "lets take a ride!"
e|------------------------------------------------|
B|------------------------------------------------|
G|------666-------------------666-------10-10-8-7-|
D|-8-88-666-6/8\6-3-333--8-88-666-6/8\6-10-10-8-7-|
A|-8-88-444-6/8\6-3-333--8-88-444-6/8\6--8--8-6-5-|
E|-6-66-----4/6\4-1-111--6-66-----4/6\4-----------|

e|------------------------------------------------------------|
B|------------------------------------------------------------|
G|------666-----------------------10--------------------------|
D|-8-88-666-6/8\6-3-333--66666666-10--------------------------|
A|-8-88-444-6/8\6-3-333--66666666--8-(8)(8)(8)(8)(8)(8)(8)(8)-|
E|-6-66-----4/6\4-1-111--44444444-----------------------------|

verse A "take a ride..."
e|------------------------------------------------|
B|------------------------------------------------|
G|------666-------------------666-------10-10-8-7-|
D|-8-88-666-6/8\6-3-333--8-88-666-6/8\6-10-10-8-7-|
A|-8-88-444-6/8\6-3-333--8-88-444-6/8\6--8--8-6-5-|
E|-6-66-----4/6\4-1-111--6-66-----4/6\4-----------|
pm . .. ... . . . . ...  . .. ... . . .  .  . . .
e|-----------------------------------|
B|-----------------------------------|
G|------666-----------------------10-|
D|-8-88-666-6/8\6-3-333--66666666-10-|
A|-8-88-444-6/8\6-3-333--66666666--8-|
E|-6-66-----4/6\4-1-111--44444444----|
pm . .. ... . . . . ...  ........
[ Tab from: http://www.guitartabs.cc/tabs/p/pennywise/victim_of_reality_tab_ver_2.html ]
verse B "because!"
e|------------------------------------------------|
B|------------------------------------------------|
G|------666-------------------666-------10-10-8-7-|
D|-8-88-666-6/8\6-3-333--8-88-666-6/8\6-10-10-8-7-|
A|-8-88-444-6/8\6-3-333--8-88-444-6/8\6--8--8-6-5-|
E|-6-66-----4/6\4-1-111--6-66-----4/6\4-----------|

e|--------------------------------------------------------------------|
B|--------------------------------------------------------------------|
G|------666-----------------------88888888-5--------------------------|
D|-8-88-666-6/8\6-3-333--66666666-88888888-5--------------------------|
A|-8-88-444-6/8\6-3-333--66666666-66666666-3-(3)(3)(3)(3)(3)(3)(3)(3)-|
E|-6-66-----4/6\4-1-111--44444444-------------------------------------|
pm                                            .  .  .  .  .  .  .  .

pre-chorus riff
e|-----------------|
B|-----------------|
G|-----------------|
D|-----------------|
A|-3-4-3-4-3-1-----|
E|-------------4-3-|

chorus "voices...screaming in my head..."
e|--------------------------------------------------------------|
B|--------------------------------------------------------------|
G|------666-----------------666-888--------------666------------|
D|-3-33-666-666-88-6\5-3-33-666-888-88-6\5--3-33-666-666-88-6\5-|
A|-3-33-444-666-88-6\5-3-33-444-666-88-6\5--3-33-444-666-88-6\5-|
E|-1-11-----444-66-4\3-1-11---------66-4\3--1-11-----444-66-4\3-|

chorus ending A
e|------------|
B|------------|
G|-55555555-8-|
D|-55555555-8-|
A|-33333333-6-|
E|------------|

verse A "its not something..."
verse B
pre-chorus riff
chorus

chorus ending B
e|------------------|
B|------------------|
G|-55555555-8888888-|
D|-55555555-8888888-|
A|-33333333-6666666-|
E|------------------|

verse B "...youre gonna end up dead..."
intro

solo
e|-------------------------------------------------------------------------|
B|-------------------------------------------------------------------------|
G|-------------------------------------------------------------------------|
D|-8-8-10-11-10h11p10-13-11-10-11-10-8-8-8-10-11-10h11p10-13-11-10-10-10-6-|
A|-------------------------------------------------------------------------|
E|-------------------------------------------------------------------------|

e|-----------------------------------------------------------------|
B|-----------------------------------------------------------------|
G|--------------------------------------10~-12-8--10-12~-b-r-12-12-|
D|-8-8-10-11-10h11p10-13-11-10-10-10-11----------------------------|
A|-----------------------------------------------------------------|
E|-----------------------------------------------------------------|

solo rythm-same as verse B

pre-chorus riff
chorus x2 (there is a second guitar i can't get,
           but i think it plays around G|-12-|...)

thats the whole song,enjoY!
comments,suggestions,questions at el_diablo7th@freenet.de
Comments