Pennywise - Twist Of Fate Chords & Tabs

 

Twist Of Fate Chords & Tabs

Pennywise Chords & Tabs

Version: 2 Type: Tab 0 ratings
1 star 2 stars 3 stars 4 stars 5 stars
comments

Twist Of Fate Tab

Artist: Pennywise
Song: Twist Of Fate
Album: Land Of The Free

Tuning: Standard

Pedal-DODdeathmetal, something with distortion

Even though it looks like the verse and the
intro are the same they aren't so pay attention.

Intro:
1|--------------------------------------------|
2|--------------------------------------------|
3|--------------------------------------------|
4|-4---7-9-7---4---7-9-11--4---7-9-7--4-7-4---|
5|-2-4-5-7-5---2-4-5-7--9--2-4-5-7-5--2-5-2---|	
6|---2----------2------------2----------------|
[ Tab from: http://www.guitartabs.cc/tabs/p/pennywise/twist_of_fate_tab_ver_2.html ]
Verse:
1|------------------------------------------|
2|------------------------------------------|
3|------------------------------------------|
4|-4---7---7---4---7-9-7--4---7---7--4-7-4--|
5|-2-4-5-7-5---2-4-5-7-5--2-4-5-7-5--2-5-2--|	
6|---2---5-------2----------2---5-----------|

Pre-Chorus:
1|-----|
2|-----|
3|-----|
4|-----|
5|-5-4-|
6|-3-2-|

Chorus:
1|------------|
2|------------|
3|------------|
4|-4--7-9-----|
5|-2--5-7-54--|
6|--------32--|

Bridge:
1|------------------------------------|
2|------------------------------------|
3|-4-7---9---4------------------------|
4|-4-7-5-9-7-4-------------4-7-----2--|
5|-2-5-5-7-7-2---2-times---2-5-5-2-0--|
6|-----3---5-------------------3-0----|

1|---------------------|
2|---------------------|
3|-------9-11-12-11-9--|
4|-4-7---x-x---x--x-x--|
5|-2-5-5-7-9--10--9-7--|
6|-----3---------------|

 
 
 
There it be.
Questions Comments
AIM-Misfits3388
Aftermath_Guitarist@hotmail.com
Comments