Pennywise - Twist Of Fate Chords & Tabs

 

Twist Of Fate Chords & Tabs

Pennywise Chords & Tabs

Version: 1 Type: Tab 0 ratings
1 star 2 stars 3 stars 4 stars 5 stars
comments

Twist Of Fate Tab

   
-------------------------------------------------------------------------------
			     Twist of Fate - Pennywise
-------------------------------------------------------------------------------
Tabbed by: P_WiseGuy
Email: zachmoe25@msn.com
    
    No one has tabbed this song, so i did it!!! email me with comments, later and have fun!!!

Tuning: e B G D A e
    
    Intro: 1x
e|---------------------------------------------------------------------------|
B|---------------------------------------------------------------------------|
G|-------------7-7-9-7---------------7-7-9-11---------------7-7-9-7-----7-4--|
D|-9-9---5-5---7-7-9-7---9-9---5-5---7-7-9-11---9-9---5-5---7-7-9-7---9-7-4--|
A|-9-9---5-5---5-5-7-5---9-9---5-5---5-5-7--9---9-9---5-5---5-5-7-5---9-5-2--|
E|-7-7---3-3-------------7-7---3-3--------------7-7---3-3-------------7------|
[ Tab from: http://www.guitartabs.cc/tabs/p/pennywise/twist_of_fate_tab.html ]
    Verse: 2x (second time through, listen for palm-muting)
e|-------------------------------------------------------------------------------|
B|-------------------------------------------------------------------------------|
G|-------------7-7-7---7---------------7-7-7-9-7---------------7-7-7---7-----7-4-|
D|-9-9---5-5---7-7-7-7-7---9-9---5-5---7-7-7-9-7---9-9---5-5---7-7-7-7-7---9-7-4-|
A|-9-9---5-5---5-5-5-7-5---9-9---5-5---5-5-5-7-5---9-9---5-5---5-5-5-7-5---9-5-2-|
E|-7-7---3-3---------5-----7-7---3-3---------------7-7---3-3---------5-----7-----|
   
    Pre Chorus: 1x
e|---------------------------------------------------------------------------|
B|---------------------------------------------------------------------------|
G|---------------------------------------------------------------------------|
D|-9-9-9-9-9-9-9-9---7-7-7-7-7-7-7-7-----------------------------------------|
A|-9-9-9-9-9-9-9-9---7-7-7-7-7-7-7-7-----------------------------------------|
E|-7-7-7-7-7-7-7-7---5-5-5-5-5-5-5-5-----------------------------------------|
                     * * * * * * * 
    Chorus: 4x (third/fourth time, listen for palm-muting
e|---------------------------------------------------------------------------|
B|---------------------------------------------------------------------------|
G|-------7-7---9-9-9-9-9-9---------------------------------------------------|
D|-9-9---7-7---9-9-9-9-9-9---7-7-7-7---5-5-5-5-------------------------------|
A|-9-9---5-5---7-7-7-7-7-7---7-7-7-7---5-5-5-5-------------------------------|
E|-7-7-----------------------5-5-5-5---3-3-3-3-------------------------------|

    Pre-Verse #2: 1x
e|---------------------------------------------------------------------------|
B|---------------------------------------------------------------------------|
G|---------------------------------------------------------------------------|
D|-9--9/12--12/5--5/4--7--9--9/12--12/5--5/4--7------------------------------|
A|-9--9/12--12/5--5/4--7--9--9/12--12/5--5/4--7------------------------------|
E|-7--7/10--10/3--3/2--5--7--7/10--10/3--3/2--5------------------------------|

    Verse #2: 1x
e|------------------------------------------------------------------------------|
B|------------------------------------------------------------------------------|
G|------------------------------------------------------------------------------|
D|-9-9-9-9-12-12-12-12-5-5-5-5-4-4-7-7-9-9-9-9-12-12-12-12-5-5-5-5-9-11-12-11---|
A|-9-9-9-9-12-12-12-12-5-5-5-5-4-4-7-7-9-9-9-9-12-12-12-12-5-5-5-5-x--x--x----x-|
E|-7-7-7-7-10-10-10-10-3-3-3-3-2-2-5-5-7-7-7-7-10-10-10-10-3-3-3-3-7--9-10----9-|

    Verse #2: (continued)
e|---------------------------------------------------------------------------|
B|---------------------------------------------------------------------------|
G|---------------------------------------------------------------------------|
D|-9-9-9-9-12-12-12-12-5-5-5-5-9-11-12-11------------------------------------|
A|-9-9-9-9-12-12-12-12-5-5-5-5-x--x--x--x------------------------------------|
E|-7-7-7-7-10-10-10-10-3-3-3-3-7--9-10--9------------------------------------|

Intro: 1x
Verse #1: 2x
Pre-Chorus
Chorus: 4x
Intro: 1x
Verse #1: 2x (palm-mute first, then clean)
Pre-Chorus: 1x
Chorus: 4x
Pre-Verse: 1x
Verse #2: 1x
Intro: 1x (end with palm-mute)

| /  slide up
| \  slide down
| h  hammer-on
| p  pull-off
| ~  vibrato
| +  harmonic
| x  Mute note
===============================================================================
Comments