Pennywise - Try Chords & Tabs

 

Try Chords & Tabs

Pennywise Chords & Tabs

Version: 2 Type: Bass Tab 0 ratings
1 star 2 stars 3 stars 4 stars 5 stars
comments

Try Bass Tab

   
----------------------
try / pennywise
----------------------

tabbed by carlos pino

 G]--------------------------------------------------------------------------
D]---------------------------------------------------------------------------
A]-5-5-5----8-8--5-5-5-----------5-5-5---8-8--3-3-3-3-10-8-8--
E]---------6----------------6--3-3----------6-----------------------------
[ Tab from: http://www.guitartabs.cc/tabs/p/pennywise/try_btab_ver_2.html ]
    1)
G]---------------------------------------------------------------------------
D]---------------------------------------------------------------------------
A]-5-5-5-5-5-5-5-5-9-9-9-9-9-9-9-9-5-5-5-5-5-5-5-5-3-3-3-3-----------
E]------------------------------------------------------------------------------3-3-1-1
    2)
G]---------------------------------------------------------------------------
D]---------------------------------------------------------------------------
A]-5-5-5-5-5-5-5-5-9-9-9-9-9-9-9-9-3-3-3-3-3-3-3-3-5-5-5-5-3-3-3-3
E]---------------------------------------------------------------------------
 
repeat 1 & 2

G]---------------------------------------------------------------------------
D]---------------------------------------------------------------------------
A]-5-3----3-5-3----5-7----3-5-3-8----10-5-3----5-3-5-3----5-3-5-3-8-10-5
E]-------3---------3-------3------------3-----------3-------------3----------------

and repeat 1 & 2 again


Comments