Pennywise - Time Marches On Chords & Tabs

 

Time Marches On Chords & Tabs

Pennywise Chords & Tabs

Version: 3 Type: Tab 0 ratings
1 star 2 stars 3 stars 4 stars 5 stars
comments

Time Marches On Tab

   
PennYwise
time marches on
tabbed.by:Wobbler

easy song...sounds great!

intro
e|----------------------------------------------------------------------|
B|----------------------------------------------------------------------|
G|-6/1010-101010-1066-6---6/1010-101010-1066-688-6/1010-101010-1066-6---|
D|-6/1010-101010-1066-666-6/1010-101010-1066-688-6/1010-101010-1066-666-|
A|-4/-8-8--8-8-8--844-466-4/-8-8--8-8-8--844-466-4/-8-8--8-8-8--844-466-|
E|---------------------44--------------------------------------------44-|

e|-----------------------|
B|-----------------------|
G|-----------------------|
D|-68-8-888-10-10-101010-|
A|-68-8-888-10-10-101010-|
E|-46-6-666--8--8--8-8-8-|

e|--------------------------------------------------------------------|
B|--------------------------------------------------------------------|
G|-1010-101010-1066-6---6/1010-101010-1066-688-6/1010-101010-1066-6---|
D|-1010-101010-1066-666-6/1010-101010-1066-688-6/1010-101010-1066-666-|
A|--8-8--8-8-8--844-466-4/-8-8--8-8-8--844-466-4/-8-8--8-8-8--844-466-|
E|-------------------44--------------------------------------------44-|

e|--------------------|
B|--------------------|
G|--------------------|
D|-68-8-888-10-10-----|
A|-68-8-888-10-10-----|
E|-46-6-666--8--8-\\\-|

pre-verse
e|-------------------------------------|
B|-------------------------------------|
G|-10\6/101010-6--88----10\6/1010-6-10-|
D|-10\6/101010-66-88-88-10\6/1010-6-10-|
A|--8\4/-8-8-8-46-66-88--8\4/-8-8-4--8-|
E|--------------4----66----------------|

verse \"time has changed..."\
e|------------------------------------------------------------------|
B|------------------------------------------------------------------|
G|-10\6/101010-6--88----10\6/101010-66-1010-66-10\6/10-1010-6-66-66-|
D|-10\6/101010-66-88-88-10\6/101010-66-1010-66-10\6/10-1010-6-66-66-|
A|--8\4/-8-8-8-46-66-88--8\4/-8-8-8-44--8-8-44--8\4/-8--8-8-4-44-44-|
E|--------------4----66---------------------------------------------|

e|-----------------|
B|-----------------|
G|---------8-88-88-|
D|-6-66-66-8-88-88-|
A|-6-66-66-6-66-66-|
E|-4-44-44---------|

e|------------------------------------------------------------------|
B|------------------------------------------------------------------|
G|-10\6/101010-6--88----10\6/101010-66-1010-66-10\6/10-1010-6-66-66-|
D|-10\6/101010-66-88-88-10\6/101010-66-1010-66-10\6/10-1010-6-66-66-|
A|--8\4/-8-8-8-46-66-88--8\4/-8-8-8-44--8-8-44--8\4/-8--8-8-4-44-44-|
E|--------------4----66---------------------------------------------|

e|--------------------------------------------|
B|--------------------------------------------|
G|---------8-88-88-101010101010101010-XXXXXXX-|
D|-6-66-66-8-88-88-101010101010101010-XXXXXXX-|
A|-6-66-66-6-66-66--8-8-8-8-8-8-8-8-8-XXXXXXX-|
E|-4-44-44------------------------------------|

chorus \"i don't know..."\
e|-------------------------------------------------------------------------|
B|-------------------------------------------------------------------------|
G|-10-10-10-10-10666-------10-10-10-10-10666-88-88-10-10-10-10-10666-------|
D|-10-10-10-10-10666-66-66-10-10-10-10-10666-88-88-10-10-10-10-10666-66-66-|
A|--8--8--8--8--8444-66-66--8--8--8--8--8444-66-66--8--8--8--8--8444-66-66-|
E|-------------------44-44-------------------------------------------44-44-|

e|---------------------|
B|---------------------|
G|---------------------|
D|-8-8-8-8-10-10-10-10-|
A|-8-8-8-8-10-10-10-10-|
E|-6-6-6-6--8--8--8--8-|
[ Tab from: http://www.guitartabs.cc/tabs/p/pennywise/time_marches_on_tab_ver_3.html ]
e|-------------------------------------------------------------------------|
B|-------------------------------------------------------------------------|
G|-10-10-10-10-10666-------10-10-10-10-10666-88-88-10-10-10-10-10666-------|
D|-10-10-10-10-10666-66-66-10-10-10-10-10666-88-88-10-10-10-10-10666-66-66-|
A|--8--8--8--8--8444-66-66--8--8--8--8--8444-66-66--8--8--8--8--8444-66-66-|
E|-------------------44-44-------------------------------------------44-44-|

e|---------------------|
B|---------------------|
G|---------------------|
D|-8-8-8-8-10-10-10-10-|
A|-8-8-8-8-10-10-10-10-|
E|-6-6-6-6--8--8--8--8-|

pre-verse
verse \"look ahead"\
chorus

solo (very hard solo i can't tab,but i'll give you the rythm)
e|------------------------------------------------------------------|
B|------------------------------------------------------------------|
G|-10\6/101010-6--88----10\6/101010-66-1010-66-10\6/101010-6--88----|
D|-10\6/101010-66-88-88-10\6/101010-66-1010-66-10\6/101010-66-88-88-|
A|--8\4/-8-8-8-46-66-88--8\4/-8-8-8-44--8-8-44--8\4/-8-8-8-46-66-88-|
E|--------------4----66-------------------------------------4----66-|

e|--------------------------------------------------------------|
B|--------------------------------------------------------------|
G|-10\6/10-1010-6-10-----------------1010101010101010-6666------|
D|-10\6/10-1010-6-10-\\\pickslide\\\-1010101010101010-6666-6666-|
A|--8\4/-8--8-8-4--8------------------8-8-8-8-8-8-8-8-4444-6666-|
E|---------------------------------------------------------4444-|

e|------------------------------------------------------|
B|------------------------------------------------------|
G|1010101010101010-6666-8888-1010101010101010-6666------|
D|1010101010101010-6666-8888-1010101010101010-6666-6666-|
A|-8-8-8-8-8-8-8-8-4444-6666--8-8-8-8-8-8-8-8-4444-6666-|
E|-------------------------------------------------4444-|

e|-----------------|
B|-----------------|
G|---------8-8-888-|
D|-6-6-666-8-8-888-|
A|-6-6-666-6-6-666-|
E|-4-4-444---------|

bridge
e|-----------------------------------------------------------------------|
B|-----------------------------------------------------------------------|
G|-1010-101010-1066-6---6/1010-101010-1066-688-6/1010-101010-1066-6------|
D|-1010-101010-1066-666-6/1010-101010-1066-688-6/1010-101010-1066-666----|
A|--8-8--8-8-8--844-466-4/-8-8--8-8-8--844-466-4/-8-8--8-8-8--844-466----|
E|-------------------44--------------------------------------------44----|

e|--------------------------|
B|--------------------------|
G|-----------------------10-|
D|-68-8-888-10-10-101010-10-|
A|-68-8-888-10-10-101010--8-|
E|-46-6-666--8--8--8-8-8----|

pre-verse with pickslide at the end

last verse \"time has changed..."\
e|------------------------------------------------------------------|
B|------------------------------------------------------------------|
G|-10\6/101010-6--88----10\6/101010-66-1010-66-10\6/10-1010-6-66-66-|
D|-10\6/101010-66-88-88-10\6/101010-66-1010-66-10\6/10-1010-6-66-66-|
A|--8\4/-8-8-8-46-66-88--8\4/-8-8-8-44--8-8-44--8\4/-8--8-8-4-44-44-|
E|--------------4----66---------------------------------------------|

e|-----------------|
B|-----------------|
G|---------8-88-88-|
D|-6-66-66-8-88-88-|
A|-6-66-66-6-66-66-|
E|-4-44-44---------|

outro
e|---------------------------|\----|
B|---------------------------------| \
G|1010101010101010-6666-8888-|  ---|x3
D|1010101010101010-6666-8888-------|  /
A|-8-8-8-8-8-8-8-8-4444-6666-------| /
E|---------------------------------|

e|------------------------|
B|------------------------|
G|-6-6-666-88--8-10101010-|
D|-6-6-666-88-88-10101010-|
A|-4-4-444-66-86--8-8-8-8-|
E|------------6-----------|

thats it friendz!
email me at el_diablo7th@freenet.de
Comments