Pennywise - Time Marches On Chords & Tabs

 

Time Marches On Chords & Tabs

Pennywise Chords & Tabs

Version: 1 Type: Tab 0 ratings
1 star 2 stars 3 stars 4 stars 5 stars
comments

Time Marches On Tab

   
Artist:  Pennywise
Song:  Time Marches On
Album:  Land of the Free?
Track:  1
Tabbed by:  Rick (RCGoalie1@aol.com)
AIM:  unhlax23

Chords:

C5   (8-10-10xxx)
F5   (x8-10-10xx)
C#5  (x466xx)
D#5  (x688xx)
G#5  (466xxx)
Bb5  (688xxx)


Intro:

E|--------------------------------------------------------------------------|
B|--------------------------------------------------------------------------|
G|10-10--10-10-10--10-6-6---6-----10-10--10-10-10--10-6-6---6-8-8-----------|
D|10-10--10-10-10--10-6-6---6-6-6-10-10--10-10-10--10-6-6---6-8-8-----------|
A|-8--8---8--8--8---8-4-4---4-6-6--8--8---8--8--8---8-4-4---4-6-6-----------|
E|----------------------------4-4-------------------------------------------|
cont.
E|--------------------------------------------------------------------------|
B|--------------------------------------------------------------------------|
G|10-10--10-10-10--10-6-6---6-----------------------------------------------|
D|10-10--10-10-10--10-6-6---6-6-6--8-8-8-8-8-6-10-10-10-10-10---------------|
A|-8--8---8--8--8---8-4-4---4-6-6--8-8-8-8-8-6-10-10-10-10-10---------------|
E|----------------------------4-4--6-6-6-6-6-4--8--8--8--8--8---------------|

This part is right before the first verse:

E|--------------------------------------------------------------------------|
B|-----------------------------------------------------------------S--------|
G|10-10--8-10-10-10-10--6-6-6-8---8-8-8-10-10--8-10--10-10-10-10---T--------|
D|10-10--8-10-10-10-10--6-6-6-8---8-8-8-10-10--8-10--10-10-10-10---O--------|
A|-8--8--6--8--8--8--8--4-4-4-6---6-6-6--8--8--6--8---8--8--8--8---P--------|
E|--------------------------------------------------------------------------|

Verse:
[ Tab from: http://www.guitartabs.cc/tabs/p/pennywise/time_marches_on_tab.html ]
E|----------------------------------------------------------------------------|
B|----------------------------------------------------------------------------|
G|10-10--8-10-10-10-10--6-6-6-8--8-8-8--10-10--8-10-10-10-10--6-6-6-8--8-8-8--|
D|10-10--8-10-10-10-10--6-6-6-8--8-8-8--10-10--8-10-10-10-10--6-6-6-8--8-8-8--|
A|-8--8--6--8--8--8--8--4-4-4-6--6-6-6---8--8--6--8--8--8--8--4-4-4-6--6-6-6--|
E|----------------------------------------------------------------------------|
cont.
E|--------------------------------------------------------------------------|
B|--------------------------------------------------------------------------|
G|10-10-10-10-10-10-10-10--6-6-6-6-6-6-6-6----------------------------------|
D|10-10-10-10-10-10-10-10--6-6-6-6-6-6-6-6-6-6-6-6-6-6-6-6-8-8-8-8-8-8-8-8--|
A|-8--8--8--8--8--8--8--8--4-4-4-4-4-4-4-4-6-6-6-6-6-6-6-6-8-8-8-8-8-8-8-8--|
E|-----------------------------------------4-4-4-4-4-4-4-4-6-6-6-6-6-6-6-6--|

Chorus:

E|--------------------------------------------------------------------------|
B|--------------------------------------------------------------------------|
G|10-10-10-10-10-10-6-6-6-------10-10-10-10-10-10--6-6-6-8-8-8--------------|
D|10-10-10-10-10-10-6-6-6-6-6-6-10-10-10-10-10-10--6-6-6-8-8-8--------------|
A|-8--8--8--8--8--8-4-4-4-6-6-6--8--8--8--8--8--8--4-4-4-6-6-6--------------|
E|------------------------4-4-4---------------------------------------------|
cont.
E|--------------------------------------------------------------------------|
B|--------------------------------------------------------------------------|
G|10-10-10-10-10-10-6-6-6---------------------------------------------------|
D|10-10-10-10-10-10-6-6-6-6-6-6--8-8-8-8-6-10-10-10-10-10-------------------|
A|-8--8--8--8--8--8-4-4-4-6-6-6--8-8-8-8-6-10-10-10-10-10-------------------|
E|------------------------4-4-4--6-6-6-6-4--8--8--8--8--8-------------------|

Sorry, I don't know the solo.


That should be all you need.  Could you rate this please?
Also, email me if you have any questions or anything.
Comments