Pennywise - Time Marches On Chords & Tabs

 

Time Marches On Chords & Tabs

Pennywise Chords & Tabs

Version: 1 Type: Bass Tab 0 ratings
1 star 2 stars 3 stars 4 stars 5 stars
comments

Time Marches On Bass Tab

   
Song: Time marches on
Band: Pennywise
Album: Land of the free

Tabbed by Travis Hayes

Intro: x1
G|-------|-------|-----------------|-----------|
D|-------|-------|-----------------|-----------|
A|-6h8-r-|-6h8-r-|-688-688-6-------|-----------|
E|-------|-------|----------99-x44-|-6666-8888-|

Pre-Verse: x1
G|----------------|--------------------|-----------------|-----------|
D|----------------|--------------------|-----------------|-----------|
A|-88-688-6-------|-688-688-6----------|-688-688-6-------|-----------|
E|---------99-x44-|----------99-x11-11-|----------99-x44-|-6666-8888-|

Fill 1: x1
G|----------------|---------------|
D|----------------|---------------|
A|-8-668-66-------|-8-668-668-r---|
E|---------9-6611-|---------------|
[ Tab from: http://www.guitartabs.cc/tabs/p/pennywise/time_marches_on_btab.html ]
Verse: x2
G|----------------|----------------|-----------|-----------|
D|----------------|----------------|-----------|-----------|
A|-8-668-66-------|-8-668-66-------|-8-668-----|------6666-|
E|---------9-6611-|---------9-4411-|------9999-|-4444------|

Fill 2: x1
G|-----------|
D|-----------|
A|-8888-xxxx-|
E|-----------|

Chorus: x2
G|-----------|-------------|-----------|-----------|
D|-----------|-------------|-----------|-----------|
A|-8888------|-8888--------|-8888------|-----------|
E|------9944-|------991111-|------9944-|-6666-8888-|

Then Fill 1 but play this little solo
at the end (instead of the rest):
G|----------|
D|---86-----|
A|-86--86---|
E|-------86-|

Then :
Verse x2
Fill 2 x1
Chorus x2
First half of verse x1
Fill 1 x1
Bridge: play the chorus slowly x1
it is a great sounding song
Comments