Pennywise - The World Chords & Tabs

 

The World Chords & Tabs

Pennywise Chords & Tabs

Version: 3 Type: Tab 0 ratings
1 star 2 stars 3 stars 4 stars 5 stars
comments

The World Tab

Artist: Pennywise
Song: The World
Album:Land of the free?

Tuning: Standard

Pedal-dod deathmetal or something with distortion.

Intro:
1|-----------------------------------------|
2|-----------------------------------------|
3|-----------------------------------------|
4|--1111-XX--1111-XX---12-12-XX---14-12-11-|
5|--9-9--XX--9-9--XX---10-10-XX---12-10-9--|Play 2times then play the cont. 
6|-----------------------------------------|

cont.
1|------------------------------------|
2|------------------------------------|
3|------------------------------------|
4|------------------------------------|
5|-44xx44xx44xx--77--44xx44xx44xx-7-9-|
6|-22xx22xx22xx--55--22xx22xx22xx-5-7-|
[ Tab from: http://www.guitartabs.cc/tabs/p/pennywise/the_world_tab_ver_3.html ]
Verse:
1|-----------------------|-------------------|
2|-----------------------|-------------------|
3|-----------------------|-------------------|
4|-----------------------|-------------------|
5|-44444444--7777--99999-|--44xx44xx44xx-7-7-|
6|-22222222--5555--77777-|--22xx22xx22xx-5-5-|
    ^______Play 4x's__^  then this^

Chorus:
1|-----------------------|
2|-----------------------|
3|-----------------------|
4|-----------------------|
5|-44444444-77777-99999--|
6|-22222222-55555-77777--|
  
Solo:
1|----------------------------------------------------------10-12-|
2|----------------------------------------------------------------|
3|---11^11^11^--12^-12^--14^14^----x2--15/14/12---15/14/12--------|
4|----------------------------------------------------------------|
5|----------------------------------------------------------------|
6|----------------------------------------------------------------|

Outro:
1|------------------|
2|------------------|
3|------------------|
4|--------------4---|
5|-2-2---7-7----4---|
6|-0-0---5-5----2---|


Yes it looks confusing play the parts and you will know where they go.. heres the song form.

Intro
Verse
Chorus
Intro
Verse
Chorus
Solo
Verse
Chorus
Chorus
Outro

questions comments 
AIM-Misfits3388
Aftermath_Guitarist@hotmail.com
Comments