Pennywise - The Secret Solo Chords & Tabs

 

The Secret Solo Chords & Tabs

Pennywise Chords & Tabs

Version: 1 Type: Tab 0 ratings
1 star 2 stars 3 stars 4 stars 5 stars
comments

The Secret Solo Tab

Band: Pennywise
Record: Pennywise
Song: The Secret                                                                                                                        



Solo:                           
                                                                                                                           **********finger*********
e-|--------/555---/5-5555-----------------------------------------------------
B-|--------/555---/5-5555-----------------------------------------------------
G-|-12b-/-------7---------7--5-7-8-7h8p7-7-5~~5h7p5h7p5h7p5h7p5h7p5-----------
D-|---------------------------------------------------------------------------
A-|---------------------------------------------------------------------------
E-|---------------------------------------------------------------------------
[ Tab from: http://www.guitartabs.cc/tabs/p/pennywise/the_secret_solo_tab.html ]
    P.M.*******                                     ^ ^ ^   ^ ^ ^
e-|---------------------------------------------------------------------------
B-|-----------------------------------------------/101010-/101010-------------
G-|---------------------5b------5h7-5h7-5h7-5-8~~-----------------------------
D-|---------5---5-7-5-7----7-5------------------------------------------------
A-|-----5-7---7---------------------------------------------------------------
E-|-5-8-----------------------------------------------------------------------

       
e-|---------888-101010-12121212121212-10h12p10h12p10h12p10h12p10h12p10h12p10--
B-|-/101010-------------------------------------------------------------------
G-|---------------------------------------------------------------------------
D-|---------------------------------------------------------------------------
A-|---------------------------------------------------------------------------
E-|---------------------------------------------------------------------------


e-|-12-10----10---------5/-------------|
B-|-------13----13-12---5/-------------|
G-|------------------------------------|
D-|------------------------------------|
A-|------------------------------------|
E-|------------------------------------|
Comments