Pennywise - Straight Ahead Chords & Tabs

 

Straight Ahead Chords & Tabs

Pennywise Chords & Tabs

Version: 1 Type: Tab 0 ratings
1 star 2 stars 3 stars 4 stars 5 stars
comments

Straight Ahead Tab

Here, jus play this and repeat

-----------------------
-----------------------
-----6--8-----6-----------
--8--6--8--3--6--6-----------
--8--4--6--3--4--6-----------
--6--------1-----4--------
[ Tab from: http://www.guitartabs.cc/tabs/p/pennywise/straight_ahead_tab.html ]
-----------------------
-----------------------
-----6--8-----6-----------
--8--6--8--3--6--6-6-6---------
--8--4--6--3--4--6-6-6---------
--6--------1-----4-4-4------

*after the last three strums, quickly go back to the begining of 
the riff
Comments