Pennywise - Stand By Me Chords & Tabs

 

Stand By Me Chords & Tabs

Pennywise Chords & Tabs

Version: 3 Type: Tab 0 ratings
1 star 2 stars 3 stars 4 stars 5 stars
comments

Stand By Me Tab

Pennywise
Stand by me

-Intro :4X(Bass) 
G--------------------------------------------------------------------|
D--------------------------------------------------------------------|
A--------------------------------------------------------------------|
E--5-5-5-0-4-5-5-5-5-4-2-2-2-0-1-2-2-2-2-1-0-0-0-0-1-2-2-2-0-4-5-5---|
[ Tab from: http://www.guitartabs.cc/tabs/p/pennywise/stand_by_me_tab_ver_3.html ]
-Chorus :2X  play every note 4X
E----------------------------| 
B----------------------------|
G----------------------------|
D-7--7--4--4--2--4--7--7-----|
A-7--7--4--4--2--4--7--7-----| 
E-5--5--2--2--0--2--5--5-----|

-Riff 1 :2X  play every note 4X                               
E---------------------------| 
B---------------------------|
G---------------------------|
D-7--7--4--4--2--4--7--7----|
A-7--7--4--4--2--4--7--7----| 
E-5--5--2-2--0--2--5--5----|
  _______PM_______

-Chorus :2X

-Riff 1 :2X

-Chorus :2X

-Solo

-Chorus :2X
Comments