Pennywise - Stand By Me Chords & Tabs

 

Stand By Me Chords & Tabs

Pennywise Chords & Tabs

Version: 1 Type: Bass Tab 0 ratings
1 star 2 stars 3 stars 4 stars 5 stars
comments

Stand By Me Bass Tab

--------------------------------------------
STAND BY ME / PENNYWISE
-------------------------------------------
[ Tab from: http://www.guitartabs.cc/tabs/p/pennywise/stand_by_me_btab.html ]
G------------------------------------------------------------------------------------------
D------------------------------------------2--0--------------------------------------------
A-3---3----3-3-3---3---3--5--3--0--0--0--0------4--2--0-----0--3--0--------2--5--2------3--
E--------------------------------------------------------1-----------1--3------------3-----


G----------------------------------------------------------------------------------------------
D----------------------------------------------------------------------------------------------
A-3-3-3-3-3-3---3-3-3-3-3-3--------------------------------------------------------3-3-3-3-3-3-
E----------------------------5-5-5-5-5-5---5-5-5-5-5-5---1-1-1-1-1-1---5-5-5-5-5-5---------
Comments