Pennywise - Something Wrong With Me Chords & Tabs

 

Something Wrong With Me Chords & Tabs

Pennywise Chords & Tabs

Version: 1 Type: Tab 0 ratings
1 star 2 stars 3 stars 4 stars 5 stars
comments

Something Wrong With Me Tab

INTRO
E-|-------------------------------------------------------|
B-|-------------------------------------------------------|
G-|---5---7-----------------------------------------------|
D-|-3-5-5-7-7-7-7-7---------------------------------------|
A-|-3-3-5-5-7-7-7-7---------------------------------------|
E-|-1---3---5-5-5-5---------------------------------------|

VERSE
E-|-------------------------------------------------------|
B-|-------------------------------------------------------|
G-|---5---(7)---------------------------------------------|
D-|-7-5-5-(7)-7-------------------------------------------|
A-|-7-3-5-(5)-7-------------------------------------------|
E-|-5---3-----5-------------------------------------------|
[ Tab from: http://www.guitartabs.cc/tabs/p/pennywise/something_wrong_with_me_tab.html ]
CHORUS
E-|-----------|-------------------------------------------|
B-|-----------|-------------------------------------------|
G-|---5---7---|------9-9----------------------------------|
D-|-3 5-5-7-7-|--3-5-9-9----------------------------------|
A-|-3-3-5-5-7-|--3-5-7-7----------------------------------|
E-|-1---3---5-|--1-3--------------------------------------|

BRIDGE
E-|-------------------------------------------------------|
B-|-------------------------------------------------------|
G-|----5-7------------------------------------------------|
D-|--7-5-7-7----------------------------------------------|
A-|--7-3-5-7----------------------------------------------|
E-|--5-----5----------------------------------------------|

This is my first tab be nice.
Comments