Pennywise - Something To Change Chords & Tabs

 

Something To Change Chords & Tabs

Pennywise Chords & Tabs

Version: 4 Type: Tab 0 ratings
1 star 2 stars 3 stars 4 stars 5 stars
comments

Something To Change Tab

Band: Pennywise
Song: Something To Change

Tabber: Vitor Zervelis

i saw a lot of tabs wrong, so i decided to put that solo here:


|-------------------------------------------------------------------|
|-------------------------------------------------------------------|
|---7-9-7-9--7--7-9-7-11-12----7-9-7-9--7--4-5-4--------------------|
|------------------------------------------------5------------------|
|---5-7-5-7--5--5-7-5-9--10----5-7-5-7--5--2-3-2--------------------|
|------------------------------------------------3------------------|
[ Tab from: http://www.guitartabs.cc/tabs/p/pennywise/something_to_change_tab_ver_4.html ]
|-------------------------------------------------------------------|
|-------------------------------------------------------------------|
|---7-9-7-9--7-11-12-11-12-11--12-12-11-12-14-12-11-12--------------|
|-------------------------------------------------------------------|
|---5-7-5-7--5-9--10-9--10-9---10-10-9--10-12-10-9--10--------------|
|-------------------------------------------------------------------|

|--------------------------------------------------------------------------|
|--------------------------------------------------------------------------|
|--------------------------------------------------------------------------|
|--12----11----12----9--------4----5----7----9----12-11-12-14-14-12-11-12--|
|-----x8----x8----x8---x8-------x3---x3---x3---x3--------------------------|
|--10----9-----10----7--------2----3----5----7----10-9--10-12-12-10-9--10--|
|--------------------------------------------------------------------------|

listen to get the time





LOVE PENNYWISE

VIVA O BRASIL
Comments