Pennywise - Something To Change Chords & Tabs

 

Something To Change Chords & Tabs

Pennywise Chords & Tabs

Version: 3 Type: Tab 0 ratings
1 star 2 stars 3 stars 4 stars 5 stars
comments

Something To Change Tab

Band - Pennywise
Song - Something to Change 
Album - From The Ashes


Tuning: EADGHE

Intro (guit. 1):
|------------------------------------|
|------------------------------------|
|------------------------------------|
|------------------------------------|
|-22-3-2-0-2-55-5-3-2-3-22-555-77-55-|
|-00---------33---------00-333-55-33-|

(guit. 2):
|--------------------------------------------|
|--------------------------------------------|
|--------------------------------------------|
|--------------------------------------------|
|-77777-5-77777-5-77777-10-10-10-12-12-10-10-|
|--------------------------------------------|

Verse 1:
|-----------------------------------|
|-----------------------------------|
|-----------------------------------|
|-----555-----777-----555-----------|
|-222-333-555-555-222-333-555-77-55-|
|-000-----333-----000-----333-55-33-|

Verse 2:
|-----------------------------|
|-----------------------------|
|-----------------------------|
|-444444-555-7-5-444444-555-77|
|-222222-333-5-3-222222-333-55|
|-----------------------------|

Chorus:
|--------------------------------|
|--------------------------------|
|--------------------------------|
|-----555-----777-----555--------|
|-222-333-555-555-222-333-555-77-|
|-000-----333-----000-----333-55-|

[ Tab from: http://www.guitartabs.cc/tabs/p/pennywise/something_to_change_tab_ver_3.html ]
Solo:
|----------------------------------------|
|----------------------------------------|
|----------------------------------------|
|----------------------------------------|
|-5-7-5-7-5-5-7-5-9-10-5-7-5-7-5---------|
|--------------------------------7-8-7-3-|

|---------------------------------------------|
|---------------------------------------------|
|---------------------------------------------|
|---------------------------------------------|
|-5-7-5-7-5-9-10-9-10-9-10-10-9-10-12-10-9-10-|
|---------------------------------------------|

|-------------------------------------------------------------|
|-------------------------------------------------------------|
|-------------------------------------------------------------|
|-------------------------------------------------------------|
|-10-10-10-10-10-10-9-9-9-9-9-9-10-10-10-10-10-10-7-7-7-7-7-7-|
|-------------------------------------------------------------|

|---------------------------------------|
|---------------------------------------|
|---------------------------------------|
|---------------------------------------|
|---------555-777-10-9-10-12-12-10-9-10-|
|-777-888-------------------------------|

Outro:
|--------------------------------|
|--------------------------------|
|--------------------------------|
|-----555-----777-----555--------|
|-222-333-555-555-222-333-555-77-|
|-000-----333-----000-----333-55-|
Comments