Pennywise - Something To Change Chords & Tabs

 

Something To Change Chords & Tabs

Pennywise Chords & Tabs

Version: 2 Type: Tab 0 ratings
1 star 2 stars 3 stars 4 stars 5 stars
comments

Something To Change Tab

   
something to change  
PENNYWISE


intro
e|---------------------------------|
B|---------------------------------|
G|----5522-----5544-----5522---7-5-|
D|22-25522-22225544-22-25522-2-7-5-|X2
A|22-23300-22223322-22-23300-2-5-3-|
E|00-0-----0000-----00-0-----0-----|

2nd time gtr2 plays this (i think)
e|------------------------------------------|
B|------------------------------------------|
G|------------------------------------------|
D|-------------------------------(12)-(10)--|
A|77-77777-77-77777-77-77777-(7)------------|
E|------------------------------------------|

verse
e|---------------------------------------|
B|---------------------------------------|
G|-----5555------7777------5555------7-5-|
D|2222-5555-2222-7777-2222-5555-2222-7-5-|X2
A|2222-3333-2222-5555-2222-3333-2222-5-3-|
E|0000------0000------0000------0000-----|
[ Tab from: http://www.guitartabs.cc/tabs/p/pennywise/something_to_change_tab_ver_2.html ]
e|--------------------------------------------|
B|--------------------------------------------|
G|----------------------------------------7-5-|
D|222-22222-22222-22222-22222-22222-22222-7-5-|
A|222-22222-22222-22222-22222-22222-22222-5-3-|
E|000-00000-00000-00000-00000-00000-00000-----|
  * *   **    **    **    **    **    **
 PM PM  PM    PM    PM    PM    PM    PM

e|--------------------------------------|
B|--------------------------------------|
G|-----5555------7777------5555------7-5|
D|2222-5555-2222-7777-2222-5555-2222-7-5|X1
A|2222-3333-2222-5555-2222-3333-2222-5-3|
E|0000------0000------0000------0000----|

pre-chorus
e|---------------------------------------|
B|---------------------------------------|
G|44-444-455-5-7-5-44-444-45x5x-5x-7x-5x-|
D|44-444-455-5-7-5-44-444-45x5x-5x-7x-5x-|x1
A|22-222-233-3-5-3-22-222-23x3x-3x-5x-3x-|
E|---------------------------------------|

chorus
e|---------------------------------------|
B|---------------------------------------|
G|-----5-55------5-55------5-55------7-5-|
D|2-22-5-55-5-55-5-55-2-22-5-55-5-55-7-5-|x2
A|2-22-3-33-5-55-3-33-2-22-3-33-5-55-5-3-|
E|0-00------3-33------0-00------3-33-----|

then;
repeat intro
repeat verse
repeat pre-chorus
repeat chorus
next part is the solo which i can't really figure out so play verse x4
after that play chorus MUTED x2
repeat chorus twice unmuted
and end on E
D|2
A|2
E|0 

i think that\s it .if  you've got idea  for  the solo  submit it.PEACE.
Comments