Pennywise - Something To Change Chords & Tabs

 

Something To Change Chords & Tabs

Pennywise Chords & Tabs

Version: 1 Type: Tab 0 ratings
1 star 2 stars 3 stars 4 stars 5 stars
comments

Something To Change Tab

   
-------------------------------------------------------------------------------
			     Something To Change - Pennywise
-------------------------------------------------------------------------------
Tabbed by:Christ_air
Email:Christ_air@skateboard.com

Tuning:EADGBE

Verse(here are the chords, listen to the CD for the rhythm)

e|---------------------------------------------------------------------------|
B|---------------------------------------------------------------------------|
G|---------------------------------------------------------------------------|
D|-------5-------------------------------------------------------------------|
A|--2----3----5----7----5----------------------------------------------------|
E|--0---------3----5----3----------------------------------------------------|

Chorus
[ Tab from: http://www.guitartabs.cc/tabs/p/pennywise/something_to_change_tab.html ]
e|---------------------------------------------------------------------------|
B|---------------------------------------------------------------------------|
G|---------------------------------------------------------------------------|
D|---------55----------------------------------------------------------------|
A|---22----33---55----77----2-------5----7----5----2-------------------------|
E|---00---------33----55----0-------3----5----3----0-------------------------|

Breakdown P.M-----------------

e|---------------------------------------------------------------------------|
B|---------------------------------------------------------------------------|
G|---------------------------------------------------------------------------|
D|----------55---------------------------------------------------------------|
A|----22----33----55----77---------------------------------------------------|
E|----00----------33----55---------------------------------------------------|

And that's it! This one took a while to get just right but here it is!

Christ_air

| /  slide up
| \  slide down
| h  hammer-on
| p  pull-off
| ~  vibrato
| +  harmonic
| x  Mute note
===============================================================================
Comments