Pennywise - Society Chords & Tabs

 

Society Chords & Tabs

Pennywise Chords & Tabs

Version: 1 Type: Tab 1 rating
1 star 2 stars 3 stars 4 stars 5 stars
comments

Society Tab

Pennywise "Society"

tabbed by: Corey - nevermind24@mail.com -

intro/1st part
|-------------------------------------------------------------------|
|-------------------------------------------------------------------|
|-----------9--9-9---------5--5-5---------9--9-9--12-12-12-------12-|. 
|----x7-x7--9--9-9--x5-x5--5--5-5--x7-x7--9--9-9--12-12-12-12-12-12-|. *REPEAT*
|----x7-x7--7--7-7--x5-x5--3--3-3--x7-x7--7--7-7--10-10-10-12-12-10-|
|----x5-x5----------x3-x3----------x5-x5-------------------10-10----|
[ Tab from: http://www.guitartabs.cc/tabs/p/pennywise/society_tab.html ]
2nd part
|------------------------------------------------------------------|
|------------------------------------------------------------------|
|----------7-9-9-9--5-5-5-----5--------7-9-9-9---12-12-12-------12-|. 
|----7-7---7-9-9-9--5-5-5-5-5-5--7-7---7-9-9-9---12-12-12-12-12-12-|. *REPEAT*
|----7-7---5-7-7-7--3-3-3-5-5-3--7-7---5-7-7-7---10-10-10-12-12-10-|
|----5-5------------------3-3----5-5----------------------10-10----|


There is more to it, but i can't seem to remember it...so that is it.

email me if yous gotta problem wit it. my email is: nevermind24@mail.com

(check out my guitar site; http://www.angelfire.com/rock/coreysguitararchive 
Comments