Pennywise - Society Chords & Tabs

 

Society Chords & Tabs

Pennywise Chords & Tabs

Version: 2 Type: Bass Tab 0 ratings
1 star 2 stars 3 stars 4 stars 5 stars
comments

Society Bass Tab

------------------------------------------------------------------
			 SOCIETY - Pennywise
------------------------------------------------------------------

By: Dave Wilson (nougeypooge@hotmail.com for requests)

Riff 1
G|---------------------------------------------------------------|
D|---------------------------------------------------------------|
A|-------4---7-7-7-0---3-3-3-3---3---3---------------------------|
E|-5-5-5---------------------------3---3-------------------------|

G|---------------------------------------------------------------|
D|---------------------------------------------------------------|
A|-------4---7-7-7-0---10-10-10-10---10--10----------------------|
E|-5-5-5-------------------------------10--10--------------------|

Riff 2
G|---------------------------------------------------------------|
D|---------------------------------------------------------------|
A|-------7-7---------3-3---------7-7-7-7--10-10-10-10-10---10----|
E|5-5-5-------3-3-3-------5-5-5--------------------------10---10-|
[ Tab from: http://www.guitartabs.cc/tabs/p/pennywise/society_btab_ver_2.html ]
Riff 3
G|---------------------------------------------------------------|
D|---------------------------------------------------------------|
A|--------3-3-3-3---------5-5-5-5---------3-3-3-3----------------|
E|5-5-5-5---------3-3-3-3---------5-5-5-5---------3-3-3-3-3-3-3-3|

There are three bass runs during the song

Bass run 1          Bass run 2             Bass run 3
G|-0----------------|-7-5--------------|-------------------------|
D|---3-2-0----------|-----7-5----------|-------------------------|
A|---------3-2-0----|---------7-5-3----|-10----10----10-10-10----|
E|---------------3--|---------------3--|----10----10----------10-|

Order
Intro  Riff 1 (x2)
        Riff 2 (x2) (Bass run 1 on second time)
        Riff 1 (x2) (Bass run 1 then 2)
Verse  Riff 1 (x4) (Bass run 1 on third time)
Chorus Riff 3 (x2)
        Riff 2 (x2) (Bass run 1 on third time)
Verse  Riff 1 (x4) (Bass run 2 on third time)
Chorus Riff 3 (x2)
        Riff 2 (x2)
Bridge Riff 1 (x3) then 5th fret on E and 7th fret on D
Outro  Riff 1 (x4) (Bass run 1 on first time, 3 on third time)
Comments