Pennywise - Secret Chords & Tabs

 

Secret Chords & Tabs

Pennywise Chords & Tabs

Version: 1 Type: Tab 0 ratings
1 star 2 stars 3 stars 4 stars 5 stars
comments

Secret Tab

The Secret by Pennywise
Solo tabbed by Jason

I was listening to this song and remembered i wanted to look up the
tab for the solo but couldnt find it so I decided to do it myself
This is probably not very accurate but it's as close as I'm gonna get

Standard tuning
^=bend
h=hammer on
p=pull off
t=trill
*=tremolo picking
\=slide down
                                (Play this last part extremely fast)
|-9\---5-5-5--5----5-5-5--5-------------------------------|
|-9\---5-5-5--5----5-5-5--5-----5-------------------------|
|---------------7^-----------7^---5h7p5-------(7p5--------|
|---------------------------------------7^-------7p5------|
|---------------------------------------------------7p5)--|
|---------------------------------------------------------|
[ Tab from: http://www.guitartabs.cc/tabs/p/pennywise/secret_tab.html ]
|--------------------------------------------5--5-5-55--5-5-|
|---------------------------5--5--5h8p5-8----8^-8-8-88^-8-8-|
|---------------------------7^-7^---------------------------|
|------------5^-----5^--------------------------------------|
|------5h7p5----5------5------------------------------------|
|-5--8------------8------5----------------------------------|

|---5*8*10*-12*-12t10*-12-10-8h10p8-8-10p8\-|
|-8-----------------------------------------|
|-------------------------------------------|
|-------------------------------------------|
|-------------------------------------------|
|-------------------------------------------|

I don't know how accurate this is but I'm almost positive the solo is
based on the A pentatonic scale so if you're good at guitar and you
wanna cover this song in a band it should be easy enough to improvise
something similar

Send all questions, comments, and death threats to Powerkordz@aol.com
Comments