Pennywise - Same Old Story Chords & Tabs

 

Same Old Story Chords & Tabs

Pennywise Chords & Tabs

Version: 5 Type: Tab 0 ratings
1 star 2 stars 3 stars 4 stars 5 stars
comments

Same Old Story Tab

   
Artist: Pennywise 
Song: Same Old Story

Intro  
e-|-----------------------------------------------------------------
B-|-----------------------------------------------------------------
G-|-----------------------------------------------------------------
D-|--5-5-5--10-10-10--3-3--5-5-5------------------------------------
A-|--5-5-5--10-10-10--3-3--5-5-5------3x----------------------------
E-|--7-7-7--8--8--8---1-1--3-3-3------------------------------------ 

Verses  
e-|-----------------------------------------------------------------
B-|-----------------------------------------------------------------
G-|-----------------------------------------------------------------
D-|--5-5-5--10-10-10--3-3--5-5-5------------------------------------
A-|--5-5-5--10-10-10--3-3--5-5-5------3x----------------------------
E-|--7-7-7--8--8--8---1-1--3-3-3------------------------------------
  .................PM..........
[ Tab from: http://www.guitartabs.cc/tabs/p/pennywise/same_old_story_tab_ver_5.html ]
Chorus:
e-|-------------------------------------------------
B-|-------------------------------------------------
G-|-2-2-2-2-2-2-5-5-5-5-5-5-7-7-7-7-7-7-2-2-2-2-2-2-
D-|-2-2-2-2-2-2-5-5-5-5-5-5-7-7-7-7-7-7-2-2-2-2-2-2-
A-|-0-0-0-0-0-0-3-3-3-3-3-3-5-5-5-5-5-5-0-0-0-0-0-0-
E-|-------------------------------------------------  

Bridge 
e-|-------------------------
B-|-------------------------
G-|-5-5-5-5-5-5-5-5---------
D-|-5-5-5-5-5-5-5-5---------  x3
A-|-3-3-3-3-3-3-3-3---------
E-|-------------------------

e-|--------------------------------------------------------
B-|--------------------------------------------------------
G-|--------------------------------------------------------
D-|-5-5-5-5---7-7-7-7---5-5-5-5---7-7-7-7---9-9-9-9--------
A-|-3-3-3-3---5-5-5-5---3-3-3-3---5-5-5-5---7-7-7-7--------
E-|-3-3-3-3---5-5-5-5---3-3-3-3---5-5-5-5---7-7-7-7--------

and i dont no the solo so pfft 
tabed by jeff harding - poo_poo_punk@hotmail.com
Comments