Pennywise - Same Old Story Chords & Tabs

 

Same Old Story Chords & Tabs

Pennywise Chords & Tabs

Version: 3 Type: Tab 0 ratings
1 star 2 stars 3 stars 4 stars 5 stars
comments

Same Old Story Tab

   
T1: Kamran Chowdhury, bigkahoona@home.com, Pennywise, Same Old Story,
n/a

S1: none, PENNYWISE - Same Old Story

From: Kamran Chowdhury
intro and verse:
e-|-----------------------------------------------------------------
B-|-----------------------------------------------------------------
G-|-2-2-2-2-5-5-5-5-----------------2-2-2-2-5-5-5-5-----------------
D-|-2-2-2-2-5-5-5-5-3-3-3-3-5-5-5-5-2-2-2-2-5-5-5-5-3-3-3-3-5-5-5-5-
a-|-0-0-0-0-3-3-3-3-3-3-3-3-5-5-5-5-0-0-0-0-3-3-3-3-3-3-3-3-5-5-5-5-
E-|-----------------1-1-1-1-3-3-3-3-----------------1-1-1-1-3-3-3-3-

e-|-------------------------------------------------|
B-|-------------------------------------------------|
G-|-2-2-2-2-5-5-5-5---------------------------------|
D-|-2-2-2-2-5-5-5-5-3-3-3-3-5-5-5-5-3-3-3-3-5-5-5-5-|
a-|-0-0-0-0-3-3-3-3-3-3-3-3-5-5-5-5-3-3-3-3-5-5-5-5-|
E-|-----------------1-1-1-1-3-3-3-3-1-1-1-1-3-3-3-3-|
[ Tab from: http://www.guitartabs.cc/tabs/p/pennywise/same_old_story_tab_ver_3.html ]
chorus:
e-|-------------------------------------------------
B-|-------------------------------------------------
G-|-2-2-2-2-2-2-5-5-5-5-5-5-7-7-7-7-7-7-2-2-2-2-2-2-
D-|-2-2-2-2-2-2-5-5-5-5-5-5-7-7-7-7-7-7-2-2-2-2-2-2-
A-|-0-0-0-0-0-0-3-3-3-3-3-3-5-5-5-5-5-5-0-0-0-0-0-0- repeat...
E-|-------------------------------------------------

bridge:
e-|---------------------------------
B-|---------------------------------
G-|-5-5-5-5-5-5-5-5-2-2-2-2-2-2-2-2-
D-|-5-5-5-5-5-5-5-5-2-2-2-2-2-2-2-2-repeat x3
a-|-3-3-3-3-3-3-3-3-0-0-0-0-0-0-0-0-
E-|---------------------------------

e-|---------------------------------------------------------|
B-|---------------------------------------------------------|
G-|-5-5-5-5-7-7-7-7-2-2-2-2-2-2-2-2-5-5-5-5-7-7-7-7-9-9-9-9-|
D-|-5-5-5-5-7-7-7-7-2-2-2-2-2-2-2-2-5-5-5-5-7-7-7-7-9-9-9-9-|
a-|-3-3-3-3-5-5-5-5-0-0-0-0-0-0-0-0-3-3-3-3-5-5-5-5-7-7-7-7-|
E-|---------------------------------------------------------|

Comments