Pennywise - Same Old Story Chords & Tabs

 

Same Old Story Chords & Tabs

Pennywise Chords & Tabs

Version: 2 Type: Tab 0 ratings
1 star 2 stars 3 stars 4 stars 5 stars
comments

Same Old Story Tab

   
INTRODUCTION (VERSE ASWELL)
e-|-----------------------------------------------------------------
B-|-----------------------------------------------------------------
G-|-2-2-2-2-5-5-5-5-----------------2-2-2-2-5-5-5-5-----------------
D-|-2-2-2-2-5-5-5-5-3-3-3-3-5-5-5-5-2-2-2-2-5-5-5-5-3-3-3-3-5-5-5-5-
A-|-0-0-0-0-3-3-3-3-3-3-3-3-5-5-5-5-0-0-0-0-3-3-3-3-3-3-3-3-5-5-5-5-
E-|-----------------1-1-1-1-3-3-3-3-----------------1-1-1-1-3-3-3-3-


e-|-------------------------------------------------|
B-|-------------------------------------------------|
G-|-2-2-2-2-5-5-5-5---------------------------------| (palm mute the verse)
D-|-2-2-2-2-5-5-5-5-3-3-3-3-5-5-5-5-3-3-3-3-2-2-2-2-|
A-|-0-0-0-0-3-3-3-3-3-3-3-3-5-5-5-5-3-3-3-3-2-2-2-2-|
E-|-----------------1-1-1-1-3-3-3-3-1-1-1-1-0-0-0-0-|
                                    \-----p.m------/
[ Tab from: http://www.guitartabs.cc/tabs/p/pennywise/same_old_story_tab_ver_2.html ]
  CHORUS
e-|-------------------------------------------------
B-|-------------------------------------------------
G-|-2-2-2-2-2-2-5-5-5-5-5-5-7-7-7-7-7-7-2-2-2-2-2-2-  REPEAT x2
D-|-2-2-2-2-2-2-5-5-5-5-5-5-7-7-7-7-7-7-2-2-2-2-2-2-
A-|-0-0-0-0-0-0-3-3-3-3-3-3-5-5-5-5-5-5-0-0-0-0-0-0- 
E-|-------------------------------------------------

  BRIDGE
e-|---------------------------------
B-|---------------------------------
G-|-5-5-5-5-5-5-5-5-2-2-2-2-2-2-2-2-
D-|-5-5-5-5-5-5-5-5-2-2-2-2-2-2-2-2- REPEAT x3
A-|-3-3-3-3-3-3-3-3-0-0-0-0-0-0-0-0-
E-|---------------------------------

e-|---------------------------------------------------------|
B-|---------------------------------------------------------|
G-|-5-5-5-5-7-7-7-7-2-2-2-2-2-2-2-2-5-5-5-5-7-7-7-7-9-9-9-9-|
D-|-5-5-5-5-7-7-7-7-2-2-2-2-2-2-2-2-5-5-5-5-7-7-7-7-9-9-9-9-|
A-|-3-3-3-3-5-5-5-5-0-0-0-0-0-0-0-0-3-3-3-3-5-5-5-5-7-7-7-7-|
E-|---------------------------------------------------------|

I THINK THIS IS RIGHT BUT ANY CHANGES THEN E-MAIL ME:
jaythenofxguy@punkrocker.co.uk
Comments