Pennywise - Perfect People Chords & Tabs

 

Perfect People Chords & Tabs

Pennywise Chords & Tabs

Version: 3 Type: Tab 0 ratings
1 star 2 stars 3 stars 4 stars 5 stars
comments

Perfect People Tab

   
Song: Perfect People 
Band: Pennywise
Album: About time
Transcribed By: Matthew Resnick

intro:
e-|--------------------------------------
B-|--------------------------------------
G-|-------5-7-x-x---------------------5-- repeat 
D-|-7-x-x-5-7-x-x-5-x-x-2-7-------5-7----
A-|-7-x-x-3-5-x-x-5-x-x-2-7---5-7--------
E-|-5-x-x---------3-x-x-0-5-5------------

e-|-----------------------------------------------------------------|
B-|-----------------------------------------------------------------|
G-|-----------------7-7-7-7-7-7-7-7---------------------------------|
D-|-7-7-7-7-7-7-7-7-7-7-7-7-7-7-7-7-5-5-5-5-5-5-5-5-7-7-7-7-7-7-7-7-|
A-|-7-7-7-7-7-7-7-7-5-5-5-5-5-5-5-5-5-5-5-5-5-5-5-5-7-7-7-7-7-7-7-7-|
E-|-5-5-5-5-5-5-5-5-----------------3-3-3-3-3-3-3-3-5-5-5-5-5-5-5-5-|
Yah.yah yah part...
[ Tab from: http://www.guitartabs.cc/tabs/p/pennywise/perfect_people_tab_ver_3.html ]
e-|-------------------------------------------------|
B-|-------------------------------------------------|
G-|---------5-7-7-7-7-7-7-7-------------------------|
D-|-7-7-7-7-5-7-7-7-7-7-7-7-5-5-5-2-7-7-7-7-7-7-7-7-|
A-|-7-7-7-7-3-5-5-5-5-5-5-5-5-5-5-2-7-7-7-7-7-7-7-7-|
E-|-5-5-5-5-----------------3-3-3-0-5-5-5-5-5-5-5-5-|
all the perfect people..etc

e-|-----------------------------------------------------------------|
B-|-----------------------------------------------------------------|
G-|---------7-x-x-7-------------------------7-x-x-7-----------------|
D-|-7-x-x-7-7-x-x-7-5-x-x-5-7-x-x-7-7-x-x-7-7-x-x-7-5-x-x-5-7-x-x-7-|
A-|-7-x-x-7-5-x-x-5-5-x-x-5-7-x-x-7-7-x-x-7-5-x-x-5-5-x-x-5-7-x-x-7-|
E-|-5-x-x-5---------3-x-x-3-5-x-x-5-5-x-x-5---------3-x-x-3-5-x-x-5-|
so i took a drive...etc

e-|-----------------------------------------------------|
B-|-----------------------------------------------------|
G-|-----7-----------7-----------7-----------------------|
D-|-7-7-7-5-5-7-7-7-7-5-5-7-7-7-7-5-5-7-7-7-7-7-7-7-7-7-|
A-|-7-7-5-5-5-7-7-7-5-5-5-7-7-7-5-5-5-7-7-7-7-7-7-7-7-7-|
E-|-5-5---3-3-5-5-5---3-3-5-5-5---3-3-5-5-5-5-5-5-5-5-5-|
fucked up eyes ...etc

e-|-----------------------------------|
B-|-----------------------------------|
G-|-----------------------------------|
D-|-----------7-----------7-5-5-5-5-7-|
A-|-----------7-----------7-5-5-5-5-7-|
E-|-x-x-x-x-x-5-x-x-x-x-x-5-3-3-3-3-5-|
i bet you think that i'm insane...

Comments