Pennywise - Perfect People Chords & Tabs

 

Perfect People Chords & Tabs

Pennywise Chords & Tabs

Version: 1 Type: Bass Tab 0 ratings
1 star 2 stars 3 stars 4 stars 5 stars
comments

Perfect People Bass Tab

PENNYWISE - "Perfect People" - Bass Tab

Intro:
|-----------|-----------|-------------|--------------|
|*----------|-----------|-------------|-------------*|
|*--R-r-3-5-|-R-R-r-3---|-R-R-r-------|-------------*|(x4)
|-5---------|---------3-|-------0-0-5-|-R-R-0-0-1-3--|
  1 2 3 & 4   1 2 3 & 4   1 2 3 & 4 &   1 2 3 & 4 &

Yeah Part:
|------------------|-----------------|-----------------|
|*-----------------|-----------------|-----------------|
|*-0-0-0-0-0-0-0-0-|-3-4-5-5-5-5-5-5-|-----------------|
|------------------|-----------------|-3-3-3-3-3-3-3-4-|
   1 & 2 & 3 & 4 &   1 & 2 & 3 & 4 &   1 & 2 & 3 & 4 & 

|------------------|
|-----------------*|
|-----------------*| (x4)
|-5-5-5-5-5-5-5-5--|
  1 & 2 & 3 & 4 &
[ Tab from: http://www.guitartabs.cc/tabs/p/pennywise/perfect_people_btab.html ]
Verse:
|------------------|-----------------|-----------------|
|*-----------------|-----------------|-----------------|
|*-----------------|-3-3-5-5-5-5-5-5-|-----------------|
|--5-5-5-5-5-5-5-5-|-----------------|-3-3-3-3-3-3-3-4-|
   1 & 2 & 3 & 4 &   1 & 2 & 3 & 4 &   1 & 2 & 3 & 4 &      

|------------------|
|-----------------*|
|-----------------*| (x4)
|-5-5-5-5-0-0-1-3--|
  1 & 2 & 3 & 4 &   


Chorus:
|---------|--------------|--------------|
|---------|*-------------|-------------*|
|-R-R-R-R-|*-------5-5-5-|-3-3-3-0-0-0-*| (x3)
|---------|--5-5-5-------|--------------|
  1 2 3 4    1 & 2 3 & 4   1 & 2 3 & 4    

|------------------|------------------|
|*-----------------|-----------------*|
|*-----------------|-0-0-0-0-0-0-0-0-*|(x3)
|--1-1-1-1-1-1-1-1-|------------------|
   1 & 2 & 3 & 4 &   1 & 2 & 3 & 4 & 


By: Johari Taylor
E-mail: viking@powerup.com.au






Comments