Pennywise - Pennywise Chords & Tabs

 

Pennywise Chords & Tabs

Pennywise Chords & Tabs

Version: 2 Type: Tab 0 ratings
1 star 2 stars 3 stars 4 stars 5 stars
comments

Pennywise Tab

   
Band: Pennywise
Album: Pennywise
TheMutts (halo2k@forerunners.org)

Note: I would like to thanks to authors for these tabs. NOTE: I (TheMutts)
do not take credit at all for these tabs. I simply compiled the most accurate
tabs and put this album together so you can find all the songs in here.




Tracks
1. Wouldn't It Be Nice
2. Rules
3. Secret
4. Living for Today
5. Come Out Fighting
6. Homeless
7. Open Door
8. Pennywise
9. Who's to Blame
10. Fun and Games
11. Kodiak
12. Side One
13. No Reason Why
14. Bro Hymn


////////////////////////////////////////////////////////////////////////////

1. Wouldn't It Be Nice

e-|--------------|-------------------------------------|
B-|--------------|-------------------------------------|
G-|--------------|----------6-6-6-x-8-8-8-x------------|
D-|-8------------|--8-8-8-x-6-6-6-x-8-8-8-x-10-10-10-x-|
A-|-8-pick slide-|--8-8-8-x-4-4-4-x-6-6-6-x-10-10-10-x-|
E-|-6------------|--6-6-6-x------------------8--8--8-x-|

e-|-----------------------------------------------------------------------|
B-|-----------------------------------------------------------------------|
G-|---------6-6-6-x-8-8-8-x-10-10-10-x---------6-6-6-x-8-8-8-x------------|
D-|-8-8-8-x-6-6-6-x-8-8-8-x-10-10-10-x-8-8-8-x-6-6-6-x-8-8-8-x-10-10-10-x-|
A-|-8-8-8-x-4-4-4-x-6-6-6-x--8--8--8-x-8-8-8-x-4-4-4-x-6-6-6-x-10-10-10-x-|
E-|-6-6-6-x----------------------------6-6-6-x------------------8--8--8-x-|

e-|------------------------------------|
B-|------------------------------------|
G-|------------------x-8-8-8-8-8-8-8---|
D-|-x-6-6-6-6-6-6-6--x-8-8-8-8-8-8-8---|
A-|-x-6-6-6-6-6-6-6--x-6-6-6-6-6-6-6---|
E-|-x-4-4-4-4-4-4-4--------------------|

 do this once as the intro and continue to play it along with the verses...

chorus:
e-|-----------------------------------------------------------------|
B-|-----------------------------------------------------------------|
G-|-----------------6-6-6-6-6-6-6-6---------------------------------|
D-|-8-8-8-8-8-8-8-8-6-6-6-6-6-6-6-6-6-6-6-6-6-6-6-6-8-8-8-8-8-8-8-8-|
A-|-8-8-8-8-8-8-8-8-4-4-4-4-4-4-4-4-6-6-6-6-6-6-6-6-8-8-8-8-8-8-8-8-|
E-|-6-6-6-6-6-6-6-6-----------------4-4-4-4-4-4-4-4-6-6-6-6-6-6-6-6-|


e-|-----------------------------------------------------------------------|
B-|-----------------------------------------------------------------------|
G-|---------6-6-6-x-8-8-8-x--------------------6-6-6-x-8-8-8-x-10-10-10-x-|
D-|-8-8-8-x-6-6-6-x-8-8-8-x-10-10-10-x-8-8-8-x-6-6-6-x-8-8-8-x-10-10-10-x-|
A-|-8-8-8-x-4-4-4-x-6-6-6-x-10-10-10-x-8-8-8-x-4-4-4-x-6-6-6-x--8--8--8-x-|
E-|-6-6-6-x------------------8--8--8-x-6-6-6-x----------------------------|


e-|---------------------------------------------------------------------|
B-|---------------------------------------------------------------------|
G-|---------6-6-6-x-8-8-8-x----------------------------8-8-8-8-8-8-8-8--|
D-|-8-8-8-x-6-6-6-x-8-8-8-x-10-10-10-x-6-6-6-6-6-6-6-6-8-8-8-8-8-8-8-8--|
A-|-8-8-8-x-4-4-4-x-6-6-6-x-10-10-10-x-6-6-6-6-6-6-6-6-6-6-6-6-6-6-6-6--|
E-|-6-6-6-x------------------8--8--8-x-4-4-4-4-4-4-4-4------------------|


  solo...(I guess)
e-|--------------------------------------------------------------------------|
B-|--------------------------------------------11-9------------11-9----------|
G-|-------------------------------------------------8-8-10-8--------8-8-10-8-|
D-|-8-8888-8888-8888-8888-8888-8888-8888-8888----------------8--------------8|
A-|-8------------------------------------------------------------------------|
E-|-6------------------------------------------------------------------------|

2. Rules

intro:
e-|-------------------------------------------|
B-|-------------------------------------------|
G-|-7-7-10-10-7-7-10-10-7-7-10-10-12-12-12-12-|
D-|-7-7-10-10-7-7-10-10-7-7-10-10-12-12-12-12-|
A-|-5-5--8--8-5-5--8--8-5-5--8--8-10-10-10-10-|   x2
E-|-------------------------------------------|

verse:
e-|-----------------------------------------------------------------|
B-|-----------------------------------------------------------------|
G-|-7-7-7-7-5-5-5-5-----------------7-7-7-7-5-5-5-5-----------------|
D-|-7-7-7-7-5-5-5-5-5-5-5-5-7-7-7-7-7-7-7-7-5-5-5-5-5-5-5-5-7-7-7-7-|
A-|-5-5-5-5-3-3-3-3-5-5-5-5-7-7-7-7-5-5-5-5-3-3-3-3-5-5-5-5-7-7-7-7-|
E-|-----------------3-3-3-3-5-5-5-5-----------------3-3-3-3-5-5-5-5-|

                                           chorus:
e-|------------------------------------------------------------------|
B-|------------------------------------------------------------------|
G-|-7-7-7-7-5-5-5-5-----------------10-10-10-10-9-10-10-10-9-7-7-7-7-|
D-|-7-7-7-7-5-5-5-5-5-5-5-5-7-7-7-7-10-10-10-10-9-10-10-10-9-7-7-7-7-|
A-|-5-5-5-5-3-3-3-3-5-5-5-5-7-7-7-7--8--8--8--8-7--8--8--8-7-5-5-5-5-|
E-|- ---------------3-3-3-3-5-5-5-5----------------------------------|

e-|-----------------------------------------------------------------|
B-|-----------------------------------------------------------------|
G-|-7-7-7-7-5-5-5-5-10-10-10-10-7-7-7-7-7-7-7-7-9-9-9-9-10-10-10-10-|
D-|-7-7-7-7-5-5-5-5-10-10-10-10-7-7-7-7-7-7-7-7-9-9-9-9-10-10-10-10-|
A-|-5-5-5-5-3-3-3-3--8--8--8--8-5-5-5-5-5-5-5-5-7-7-7-7--8--8--8--8-|
E-|-----------------------------------------------------------------|


e-|----------------------------------------------------------------|
B-|----------------------------------------------------------------|
G-|-7-7-7-7-7-7-7-7-5-5-5-5-5-5-5-5-3-3-3-3-3-3-3-3-2--10-10-10-10-|
D-|-7-7-7-7-7-7-7-7-5-5-5-5-5-5-5-5-3-3-3-3-3-3-3-3-2--10-10-10-10-|
A-|-5-5-5-5-5-5-5-5-3-3-3-3-3-3-3-3-1-1-1-1-1-1-1-1-0---8--8--8--8-|
E-|----------------------------------------------------------------|


bridge:
e-|---------------------------------------------------------------|
B-|---------------------------------------------------------------|
G-|-7-7-7-7-7-7-7-7-5-5-5-5-5-5-5-5-5-5-10-10-5-5-10-10-5-5-10-10-|
D-|-7-7-7-7-7-7-7-7-5-5-5-5-5-5-5-5-5-5-10-10-5-5-10-10-5-5-10-10-|
A-|-5-5-5-5-5-5-5-5-3-3-3-3-3-3-3-3-3-3--8--8-3-3--8--8-3-3--8--8-|
E-|---------------------------------------------------------------|

e-|---------------------------------------------------------------|
B-|---------------------------------------------------------------|
G-|-7-7-10-10-7-7-7-7-7-7-7-7-5-5-5-5-5-5-5-5-5-5-10-10-5-5-10-10-|
D-|-7-7-10-10-7-7-7-7-7-7-7-7-5-5-5-5-5-5-5-5-5-5-10-10-5-5-10-10-|
A-|-5-5--8--8-5-5-5-5-5-5-5-5-3-3-3-3-3-3-3-3-3-3--8--8-3-3--8--8-|
E-|---------------------------------------------------------------|

e-|--------------------------------------------|
B-|--------------------------------------------|
G-|-7-7-10-10-10-7-10-10-7-7-10-10-12-12-12-12-|
D-|-7-7-10-10-10-7-10-10-7-7-10-10-12-12-12-12-|
A-|-5-5--8--8--8-5--8--8-5-5--8--8-10-10-10-10-|
E-|--------------------------------------------|

3. Secret

intro...
e-|------------------------------------------------------------|
B-|------------------------------------------------------------|
G-|------------------------------------------------------------|
D-|-7-7-x-x-9-9-10-10-5-5-5-5-5-7-7-x-x-9-9-10-10-12-12-12-12--|
A-|-7-7-x-x-9-9-10-10-5-5-5-5-5-7-7-x-x-9-9-10-10-12-12-12-12--|
E-|-5-5-x-x-7-7--8--8-3-3-3-3-3-5-5-x-x-7-7--8--8-10-10-10-10--|

e-|-----------------------------------------------|
B-|-----------------------------------------------|
G-|---------------------------9-9-9-9-9-9-9-9-9-9-|
D-|-7-7-x-x-9-9-10-10-5-5-5-5-9-9-9-9-9-9-9-9-9-9-|
A-|-7-7-x-x-9-9-10-10-5-5-5-5-7-7-7-7-7-7-7-7-7-7-|
E-|-5-5-x-x-7-7--8--8-3-3-3-3---------------------|

verses:

e-|-----------------------------------------------|
B-|-----------------------------------------------|
G-|-------------------------------------7-7-7-7-7-|
D-|-7-7-9-9-10-10-10-10-10-10-3-3-3-3-3-7-7-7-7-7-|
A-|-7-7-9-9-10-10-10-10-10-10-3-3-3-3-3-5-5-5-5-5-|
E-|-5-5-7-7--8--8--8--8--8--8-1-1-1-1-1-----------|


e-|-----------------------------------------------|
B-|-----------------------------------------------|
G-|-------------------------------------9-9-9-9-9-|
D-|-7-7-9-9-10-10-10-10-10-10-5-5-5-5-5-9-9-9-9-9-|
A-|-7-7-9-9-10-10-10-10-10-10-5-5-5-5-5-7-7-7-7-7-|
E-|-5-5-7-7--8--8--8--8--8--8-3-3-3-3-3-----------|

chorus:begin the chorus by playing the intro and than it goes into
this.... which is more or less the same thing...
e-|----------------------------------------------------------------------|
B-|----------------------------------------------------------------------|
G-|----------------------------------------------------------------------|
D-|-7-7-9-9-10-10-12-12-12-7-7-9-9-10-10-12-12-12-7-7-9-9-10-10-12-12-12-|
A-|-7-7-9-9-10-10-12-12-12-7-7-9-9-10-10-12-12-12-7-7-9-9-10-10-12-12-12-|
E-|-5-5-7-7--8--8-10-10-10-5-5-7-7--8--8-10-10-10-5-5-7-7--8--8-10-10-10-|

e-|-----------------------------------|
B-|-----------------------------------|
G-|-9-9-9-9-9-9-9-9-9-9-9-9-9-9-9-9-9-|
D-|-9-9-9-9-9-9-9-9-9-9-9-9-9-9-9-9-9-|
A-|-7-7-7-7-7-7-7-7-7-7-7-7-7-7-7-7-7-|
E-|-----------------------------------|


4. Living For Today

Intro
none of the chord struming is exact. listen to the record and figure it out yourself.
e|----------------------------------------------------------------------------|
B|----------------------------------------------------------------------------|
G|---------------------------101010\99-555-777-----1010/99-555----------------|
D|--7--------------------777-101010\99-555-777-777-1010/99-555-55\3/5---------|
A|--7--strum a few times-777-8-8-8-\77-333-555-777-8-8-/77-333-55\3/5---------|
E|--5--------------------555-------------------555-------------33\1/3---------|

e|------------------------------------------------------------------------------|
B|------------------------------------------------------------------------------|
G|------101010\99-555-777-----101010-121212-------------------------------------|
D|--777-101010\99-555-777-777-101010-121212-------------------------------------|
A|--777-8-8-8-\77-333-555-777-8-8-8--101010....then into verse wich is the same-|
E|--555-------------------555--------------------(listen to the record)---------|

chorus(palm muting changes later in song)
e|---------------------------------------------------------------------------|
B|---------------------------------------------------------------------------|
G|-------------------------------------------------1010-9--------------------|
D|--7------------------1010-5--7-------------------1010-9--x2----------------|
A|--7-> palm mute    <-1010-5--7->  palm mute    <-8-8--7--------------------|
E|--5-5555555555555555-8-8--3--5-55555555555555555---------------------------|

slow part(change it up with palm muting)
e|---------------------------------------------------------------------------|
B|---------------------------------------------------------------------------|
G|-----1010\9-55-77-----1010\9-5---------------------------------------------|
D|--77-1010\9-55-77--77-1010\9-5-5------3-5----------------------------------|
A|--77-8-8-\7-33-55--77-8-8-\7-3-5------3-5----------------------------------|
E|--55---------------55----------3-3\12/1-3----------------------------------|

verse:
e-|-------------------------------------------------------------------------|
B-|-------------------------------------------------------------------------|
G-|---------10-10-10-10-5-5-5-5-7-7-7-7---------10-10-10-10-5-5-5-5---------|
D-|-7-7-7-7-10-10-10-10-5-5-5-5-7-7-7-7-7-7-7-7-10-10-10-10-5-5-5-5-5-5-5-5-|
A-|-7-7-7-7--8--8--8--8-3-3-3-3-5-5-5-5-7-7-7-7--8--8--8--8-3-3-3-3-5-5-5-5-|
E-|-5-5-5-5-----------------------------5-5-5-5---------------------3-3-3-3-|


e-|-------------------------------------------------------------------------|
B-|-------------------------------------------------------------------------|
G-|---------10-10-10-10-5-5-5-5-7-7-7-7---------10-10-10-10-12-12-12-12-12--|
D-|-7-7-7-7-10-10-10-10-5-5-5-5-7-7-7-7-7-7-7-7-10-10-10-10-12-12-12-12-12--|
A-|-7-7-7-7--8--8--8--8-3-3-3-3-5-5-5-5-7-7-7-7--8--8--8--8-10-10-10-10-10--|
E-|-5-5-5-5-----------------------------5-5-5-5-----------------------------|


e-|-----------|
B-|-----------|
G-|-12-12-12--|
D-|-12-12-12--|
A-|-10-10-10--|
E-|-----------|

chorus:
e-|--------------------------------------------------|
B-|--------------------------------------------------|
G-|--------------------------------------------------|
D-|-7-x-x-7-x-x-7-x-x-7-x-x-7-x-x-7-x-x-10-10-10-10--|
A-|-7-x-x-7-x-x-7-x-x-7-x-x-7-x-x-7-x-x-10-10-10-10--|
E-|-5-x-x-5-x-x-5-x-x-5-x-x-5-x-x-5-x-x--8--8--8--8--|

5. Come Out Fighting

verse:
e-|---------------------------------------------------------|
B-|---------------------------------------------------------|
G-|-------------5-5-7-7-7-7-5-5-------------5-5-7-7-7-7-5-5-|
D-|-5-5-5-5-5-5-3-3-5-5-5-5-3-3-5-5-5-5-5-5-3-3-5-5-5-5-3-3-|
A-|-3-3-3-3-3-3-----------------3-3-3-3-3-3-----------------|
E-|---------------------------------------------------------|


pre chorus:
e-|-------------------------------------------------------------------------|
B-|-------------------------------------------------------------------------|
G-|-----9-5-5-5-5-10-10-10-10-5-5-5-5-----7-5-5-5-5-10-10-10-10-12-12-12-12-|
D-|-5-5-9-5-5-5-5-10-10-10-10-5-5-5-5-5-5-7-5-5-5-5-10-10-10-10-12-12-12-12-|
A-|-5-5-7-3-3-3-3--8--8--8--8-3-3-3-3-5-5-5-3-3-3-3--8--8--8--8-10-10-10-10-|
E-|-3-3-------------------------------3-3-----------------------------------|


chorus:
e-|-----------------|
B-|-----------------|
G-|---------7-5-4-7-|
D-|-5-5-5-5-5-3-2-5-|
A-|-3-3-3-3---------|
E-|-----------------|


Bridge:
e-|---------------------------------|
B-|---------------------------------|
G-|-5-5-5-5-5-5-9-9-7-7-7-7---------|
D-|-5-5-5-5-5-5-9-9-7-7-7-7-7-5-5-5-|
A-|-3-3-3-3-3-3-7-7-5-5-5-5-7-5-5-5-|
E-|-------------------------5-3-3-3-|


outro:
e-|-------------------------|
B-|-------------------------|
G-|-----7-7-5-10-10-10-10-5-|
D-|-5-5-7-7-5-10-10-10-10-5-|
A-|-5-5-5-5-3--8--8--8--8-3-| x2
E-|-3-3---------------------|

e-|---------------------------------|
B-|---------------------------------|
G-|---------7-7-5-5-10-10-5-5-7-7---|
D-|-5-5-5-5-7-7-5-5-10-10-5-5-7-7-5-|
A-|-5-5-5-5-5-5-3-3--8--8-3-3-5-5-5-|
E-|-3-3-3-3-----------------------3-|


6. Homeless

intro:                           verse:
e-|-----------------------------|---------------------------------------|
B-|-----------------------------|---------------------------------------|
G-|-7-7-7-7-7-7-5-7-7-7-7-7-5-7-|-7-7-7-7-10-10-9-9-5-7-7-5-7-7-7-7-7-7-|
D-|-7-7-7-7-7-7-5-7-7-7-7-7-5-7-|-7-7-7-7-10-10-9-9-5-7-7-5-7-7-7-7-7-7-|
A-|-5-5-5-5-5-5-3-5-5-5-5-5-3-5-|-5-5-5-5--8--8-7-7-3-5-5-3-5-5-5-5-5-5-|
E-|-----------------------------|---------------------------------------|


e-|-----------------------------------------------------------------------|
B-|-----------------------------------------------------------------------|
G-|-10-10-9-9-5-5-5-5---------7-7-7-7-10-10-9-9-7-7-7-7-10-10-9-9-7-7-7-7-|
D-|-10-10-9-9-5-5-5-5-7-7-7-7-7-7-7-7-10-10-9-9-7-7-7-7-10-10-9-9-7-7-7-7-|
A-|--8--8-7-7-3-3-3-3-7-7-7-7-5-5-5-5--8--8-7-7-5-5-5-5--8--8-7-7-5-5-5-5-|
E-|-------------------5-5-5-5---------------------------------------------|

                               chorus:
e-|---------------------------|-----------------------------------------|
B-|---------------------------|-----------------------------------------|
G-|-10-10-9-9-5-5-5-5---------|-7-7-7-7-10-10-10-10-7-7-7-7-10-10-10-10-|
D-|-10-10-9-9-5-5-5-5-7-7-7-7-|-7-7-7-7-10-10-10-10-7-7-7-7-10-10-10-10-|
A-|--8--8-7-7-3-3-3-3-7-7-7-7-|-5-5-5-5--8--8--8--8-5-5-5-5--8--8--8--8-|
E-|-------------------5-5-5-5-|-----------------------------------------|

                                         bridge:
e-|-------------------------------------|-----------------------------|
B-|-------------------------------------|-----------------------------|
G-|-7-7-7-7-3-3-3-3-10-10-10-10-5-5-5-5-|-7-7-7-7-10-10-10-10-9-9-9-9-|
D-|-7-7-7-7-3-3-3-3-10-10-10-10-5-5-5-5-|-7-7-7-7-10-10-10-10-9-9-9-9-|
A-|-5-5-5-5-1-1-1-1--8--8--8--8-3-3-3-5-|-5-5-5-5--8--8--8--8-7-7-7-7-|
E-|-------------------------------------|-----------------------------|


e-|------------|
B-|------------|
G-|-7-7-10-9-7-|
D-|-7-7--------|
A-|-5-5--------|
E-|------------|

7. Open Door

intro:
e-|-------------------------------------|
B-|-------------------------------------|
G-|---------------5-7-5---------5-7-5---|
D-|-7-7-7---7-7-7-3-5-3-5-7-7-7-3-5-3-5-|
A-|-5-5-5---5-5-5-------3-5-5-5-------3-|
E-|-------------------------------------|

verse:
e-|-----------------------------------------------------------|
B-|-----------------------------------------------------------|
G-|-------5-7-5---------5-7-5---------5-7-5-------------------|
D-|-7-7-7-3-5-3-5-7-7-7-3-5-3-5-7-7-7-3-5-3-5-5-5-8-8-5-5-8-8-|
A-|-5-5-5-------3-5-5-5-------3-5-5-5-------3-3-3-6-6-3-3-6-6-|
E-|-----------------------------------------------------------|


chorus:
e-|-----------------------------------------------------------------|
B-|-----------------6-6-6-6-6-6-6-6---------------------6-6-----6-6-|
G-|-7-7-7-7-7-7-7-7-5-5-5-5-5-5-5-5-3-3-3-3-3-3-3-3-5-5-5-5-5-5-5-5-|
D-|-7-7-7-7-7-7-7-7-3-3-3-3-3-3-3-3-3-3-3-3-3-3-3-3-5-5-3-3-5-5-3-3-| x2
A-|-5-5-5-5-5-5-5-5-----------------1-1-1-1-1-1-1-1-3-3-----3-3-----|
E-|-----------------------------------------------------------------|


e-|-----------------|
B-|-----------------|
G-|-5-5-5-5-5-5-5-5-|
D-|-5-5-5-5-5-5-5-5-|
A-|-3-3-3-3-3-3-3-3-|
E-|-----------------|

8. Pennywise

e-----------------------------------------------------------------------------|
B-----------------------------------------------------------------------------|
G-------------7-7-------------7-7-------------7-7-9-9-9-9-9-9-9-9-------------|
D-9-9-9-9-5-5-7-7-9-9-9-9-5-5-7-7-9-9-9-9-5-5-7-7-9-9-9-9-9-9-9-9-------------|
A-9-9-9-9-5-5-5-5-9-9-9-9-5-5-5-5-9-9-9-9-5-5-5-5-7-7-7-7-7-7-7-7-------------|
E-7-7-7-7-3-3-----7-7-7-7-3-3-----7-7-7-7-3-3---------------------------------|

Thats the main riff that basically stays the same throughout the entire song
with just some palm mutes added in one of the later verses

Chorus:
e-----------------------------------------------------------------------------|
B-----------------------------------------------------------------------------|
G-7-9-7-9-7-----------------7-9-7-9-7-----------------------------------------|
D-7-9-7-9-7-9-9-9-9-9-9-9-9-7-9-7-9-7-7-7-7-7-7-7-7-7-------------------------|
A-5-7-5-7-5-9-9-9-9-9-9-9-9-5-7-5-7-5-7-7-7-7-7-7-7-7-------------------------|
E-----------7-7-7-7-7-7-7-7-----------5-5-5-5-5-5-5-5-------------------------|


9. Who's To Blame
[ Tab from: http://www.guitartabs.cc/tabs/p/pennywise/pennywise_tab_ver_2.html ]
e-|-------------------------------------------------------------------|
B-|-------------------------------------------------------------------|
G-|-------------------------------------------------------------------|
D-|-9-9-9-9-9-10-10-7-7-7-7-7-10-10--9-9-9-9-9-10-10-7-7-7-7-7-10-10--|
A-|-7-7-7-7-7--8--8-5-5-5-5-5--8--8--7-7-7-7-7--8--8-5-5-5-5-5--8--8--|
E-|-------------------------------------------------------------------|

e-|-------------------------------------------------------------------|
B-|-------------------------------------------------------------------|
G-|-------------------------------------------------------------------|
D-|-9-9-9-9-9-10-10-7-7-7-7-7-10-10--9-9-9-9-9-10-10-7-7-7-7-7-10-10--|
A-|-7-7-7-7-7--8--8-5-5-5-5-5--8--8--7-7-7-7-7--8--8-5-5-5-5-5--8--8--|
E-|-------------------------------------------------------------------|

e-|-------------------------------------------------------------------|
B-|-------------------------------------------------------------------|
G-|-------------------------------------------------------------------|
D-|-9-9-9-9-9-10-10-7-7-7-7-7-10-10--9-9-9-9-9-10-10-7-7-7-7-7-10-10--|
A-|-7-7-7-7-7--8--8-5-5-5-5-5--8--8--7-7-7-7-7--8--8-5-5-5-5-5--8--8--|
E-|-------------------------------------------------------------------|

e-|-------------------------------------------------------------------------|
B-|-------------------------------------------------------------------------|
G-|-------------------------------------------------------------------------|
D-|-9-9-9-9-5-5-7-7-9-9-9-9-9-9-9-9-----------------9-9-9-9-9-9-9-9-9-9-9-9-|
A-|-7-7-7-7-3-3-5-5-7-7-7-7-7-7-7-7-5-5-5-5-7-7-7-7-7-7-7-7-7-7-7-7-7-7-7-7-|
E-|---------------------------------3-3-3-3-5-5-5-5-------------------------|

e-|---------------------------------------------------------|
B-|---------------------------------------------------------|
G-|---------------------------------------------------------|
D-|-5-5-7-7-9-9-9-9-9-9-9-9-----------------9-9-9-9-9-9-9-9-|
A-|-3-3-5-5-7-7-7-7-7-7-7-7-5-5-5-5-7-7-7-7-7-7-7-7-7-7-7-7-|
E-|-------------------------3-3-3-3-5-5-5-5-----------------|

e-|---------------------------------------------------------------------|
B-|---------------------------------------------------------------------|
G-|---------------------------------------------------------------------|
D-|-9-9-9-9-5-5-7-7-9-9-9-9-14-14-14-14-9-9-9-9-5-5-7-7-4-4-4-4-4-4-4-4-|
A-|-7-7-7-7-3-3-5-5-7-7-7-7-12-12-12-12-7-7-7-7-3-3-5-5-2-2-2-2-2-2-2-2-|
E-|---------------------------------------------------------------------|

e-|-------------------------------------------------------------------|
B-|-------------------------------------------------------------------|
G-|-------------------------------------------------------------------|
D-|-9-9-9-9-9-10-10-7-7-7-7-7-10-10--9-9-9-9-9-10-10-7-7-7-7-7-10-10--|
A-|-7-7-7-7-7--8--8-5-5-5-5-5--8--8--7-7-7-7-7--8--8-5-5-5-5-5--8--8--|
E-|-------------------------------------------------------------------|

e-|-------------------------------------------------------------------|
B-|-------------------------------------------------------------------|
G-|-------------------------------------------------------------------|
D-|-9-9-9-9-9-10-10-7-7-7-7-7-10-10--9-9-9-9-9-10-10-7-7-7-7-7-10-10--|
A-|-7-7-7-7-7--8--8-5-5-5-5-5--8--8--7-7-7-7-7--8--8-5-5-5-5-5--8--8--|
E-|-------------------------------------------------------------------|

e-|-------------------------------------------------------------------------|
B-|-------------------------------------------------------------------------|
G-|-------------------------------------------------------------------------|
D-|-9-9-9-9-5-5-7-7-9-9-9-9-9-9-9-9-----------------9-9-9-9-9-9-9-9-9-9-9-9-|
A-|-7-7-7-7-3-3-5-5-7-7-7-7-7-7-7-7-5-5-5-5-7-7-7-7-7-7-7-7-7-7-7-7-7-7-7-7-|
E-|---------------------------------3-3-3-3-5-5-5-5-------------------------|

e-|---------------------------------------------------------|
B-|---------------------------------------------------------|
G-|---------------------------------------------------------|
D-|-5-5-7-7-9-9-9-9-9-9-9-9-----------------9-9-9-9-9-9-9-9-|
A-|-3-3-5-5-7-7-7-7-7-7-7-7-5-5-5-5-7-7-7-7-7-7-7-7-7-7-7-7-|
E-|-------------------------3-3-3-3-5-5-5-5-----------------|

e-|-----------------------------------------------------------|
B-|-----------------------------------------------------------|
G-|-----------------------------------------------------------|
D-|-9-9-9-9-5-5-7-7-9-9-9-9-14-14-14-14-9-9-9-9-5-5-7-7-4-5-7-|
A-|-7-7-7-7-3-3-5-5-7-7-7-7-12-12-12-12-7-7-7-7-3-3-5-5-2-3-5-|
E-|-----------------------------------------------------------|

e-|-------------------------------------------------------------------|
B-|-------------------------------------------------------------------|
G-|-------------------------------------------------------------------|
D-|-9-9-9-9-9-10-10-7-7-7-7-7-10-10--9-9-9-9-9-10-10-7-7-7-7-7-10-10--|
A-|-7-7-7-7-7--8--8-5-5-5-5-5--8--8--7-7-7-7-7--8--8-5-5-5-5-5--8--8--|
E-|-------------------------------------------------------------------|

e-|-------------------------------------------------------------------|
B-|-------------------------------------------------------------------|
G-|-------------------------------------------------------------------|
D-|-9-9-9-9-9-10-10-7-7-7-7-7-10-10--9-9-9-9-9-10-10-7-7-7-7-7-10-10--|
A-|-7-7-7-7-7--8--8-5-5-5-5-5--8--8--7-7-7-7-7--8--8-5-5-5-5-5--8--8--|
E-|-------------------------------------------------------------------|

e-|-------------------------------------------------------------------|
B-|-------------------------------------------------------------------|
G-|-------------------------------------------------------------------|
D-|-9-9-9-9-9-10-10-7-7-7-7-7-10-10--9-9-9-9-9-10-10-7-7-7-7-7-10-10--|
A-|-7-7-7-7-7--8--8-5-5-5-5-5--8--8--7-7-7-7-7--8--8-5-5-5-5-5--8--8--|
E-|-------------------------------------------------------------------|

e-|-------------------------------------------------------------------------|
B-|-------------------------------------------------------------------------|
G-|-------------------------------------------------------------------------|
D-|-9-9-9-9-5-5-7-7-9-9-9-9-9-9-9-9-----------------9-9-9-9-9-9-9-9-9-9-9-9-|
A-|-7-7-7-7-3-3-5-5-7-7-7-7-7-7-7-7-5-5-5-5-7-7-7-7-7-7-7-7-7-7-7-7-7-7-7-7-|
E-|---------------------------------3-3-3-3-5-5-5-5-------------------------|

e-|---------------------------------------------------------|
B-|---------------------------------------------------------|
G-|---------------------------------------------------------|
D-|-5-5-7-7-9-9-9-9-9-9-9-9-----------------9-9-9-9-9-9-9-9-|
A-|-3-3-5-5-7-7-7-7-7-7-7-7-5-5-5-5-7-7-7-7-7-7-7-7-7-7-7-7-|
E-|-------------------------3-3-3-3-5-5-5-5-----------------|

e-|---------------------------------------------------------|
B-|---------------------------------------------------------|
G-|---------------------------------------------------------|
D-|-9-9-9-9-5-5-7-7-9-9-9-9-14-14-14-14-9-9-9-9-5-5-7-7-4-5-|
A-|-7-7-7-7-3-3-5-5-7-7-7-7-12-12-12-12-7-7-7-7-3-3-5-5-2-3-|
E-|---------------------------------------------------------|

e-|--------------|
B-|--------------|
G-|--------------|
D-|-9-9-9-10-7-9-|
A-|-7-7-7--8-5-7-|
E-|--------------|




10. Fun And Games

Chords:

   E5  B5  Db5  A5  D5  Db5 C5  G5  E5  Gb5 B5
                        II          II      II
e|---------- ---------------------------------|
B|---------- ---------------------------------|
G|-9-------- -------7---6---5---------------4-|
D|-9---9---11---7---7---6---5---5---2---4---4-|
A|-7---9---11---7---5---4---3---5---2---4---2-|
E|-----7---9 ---5---------------3---0---2-----|

Riff 1:

e|-------------|
B|-------------|
G|-------------|
D|---6-7-9-7-6-|
A|-7-----------|
E|-------------|

Riff 2:

e|-------------|
B|-------------|
G|-------------|
D|---4-5-7-5-4-|
A|-5-----------|
E|-------------|

Riff 3:

e|-- -- -- -- ---|
B|-- -- -- -- ---|
G|-12-12-12-11-7-|
D|-- -- -- -- ---|
A|-- -- -- -- ---|
E|-- -- -- -- ---|

---------------------------------

Intro:

E5 - B5 - Db5 - A5
E5 - B5 - D5

Verse:

E5 - B5 - Db5 - A5
E5 - B5 - D5

(2x)

Chorus:

E-|5-| - Db5(II) - D5 - A5 - B5
E-|5-| - Db5(II) - D5 - A5 - B5
E5 - Db5(II) - D5 - A5 - B5 - D5

(2x)

E5 - Riff 1
D5 - Riff 2
E5 - Riff 1
D5 - C5 - G5 - A5

(2x)

E5(II) - Gb5 - G5
B5(II) - G5 - B5(II) - E5(II)
E5(II) - Gb5 - G5
B5(II) - G5 - B5(II) - E5

(2x)

Verse:

E5 - B5 - Db5 - A5
E5 - B5 - D5

(2x)

Chorus:

E-|5-| - Db5(II) - D5 - A5 - B5
E-|5-| - Db5(II) - D5 - A5 - B5
E5 - Db5(II) - D5 - A5 - B5 - D5

(2x)

E5 - D5
E5 - D5 - C5 - G5 - A5
E5 - Riff 1
D5 - Riff 2
E5 - Riff 1
D5 - C5 - G5 - A5

E5(II) - Gb5 - G5
B5(II) - G5 - B5(II) - E5(II)
E5(II) - Gb5 - G5
B5(II) - G5 - B5(II) - E5

(2x)

E5 - D5 - Riff 3
E5 - D5 - C5 - G5 - A5

(3x)

E5

11. Kodiak

e-|---------------------------------------------------------|
B-|---------------------------------------------------------|
G-|---------------------------------------------------------|
D-|-------------------------5-5-----------------------------|
A-|-5-5-5-5-3-3-3-3-5-5-5-5-3-3-5-5-5-5-3-3-3-3-8-8-8-7-7-7-|
E-|-3-3-3-3-1-1-1-1-3-3-3-3-----3-3-3-3-1-1-1-1-6-6-6-5-5-5-|

e-|---------------------------------------------------------|
B-|---------------------------------------------------------|
G-|---------------------------------------------------------|
D-|-------------------------5-5-----------------------------|
A-|-5-5-5-5-3-3-3-3-5-5-5-5-3-3-5-5-5-5-3-3-3-3-8-8-8-7-7-7-|
E-|-3-3-3-3-1-1-1-1-3-3-3-3-----3-3-3-3-1-1-1-1-6-6-6-5-5-5-|

e-|---------------------------------------------------------|
B-|---------------------------------------------------------|
G-|---------------------------------------------------------|
D-|-------------------------5-5-----------------------------|
A-|-5-5-5-5-3-3-3-3-5-5-5-5-3-3-5-5-5-5-3-3-3-3-8-8-8-7-7-7-|
E-|-3-3-3-3-1-1-1-1-3-3-3-3-----3-3-3-3-1-1-1-1-6-6-6-5-5-5-|

e-|---------------------------------------------------------|
B-|---------------------------------------------------------|
G-|---------------------------------------------------------|
D-|-------------------------5-5-----------------------------|
A-|-5-5-5-5-3-3-3-3-5-5-5-5-3-3-5-5-5-5-3-3-3-3-8-8-8-7-7-7-|
E-|-3-3-3-3-1-1-1-1-3-3-3-3-----3-3-3-3-1-1-1-1-6-6-6-5-5-5-|

e-|---------------------------------------------------------|
B-|---------------------------------------------------------|
G-|---------------------------------------------------------|
D-|-------------------------5-5-----------------------------|
A-|-5-5-5-5-3-3-3-3-5-5-5-5-3-3-5-5-5-5-3-3-3-3-8-8-8-7-7-7-|
E-|-3-3-3-3-1-1-1-1-3-3-3-3-----3-3-3-3-1-1-1-1-6-6-6-5-5-5-|

e-|-------------------------------------------------------------------------|
B-|-------------------------------------------------------------------------|
G-|-------------------------------------------------------------------------|
D-|-----------------8-8-8-8-10-10-10-10-----------------8-8-8-8-10-10-10-10-|
A-|-5-5-5-5-5-5-5-5-6-6-6-6--8--8--8--8-5-5-5-5-5-5-5-5-6-6-6-6--8--8--8--8-|
E-|-3-3-3-3-3-3-3-3---------------------3-3-3-3-3-3-3-3---------------------|

e-|-------------------------------------------------------------------------|
B-|-------------------------------------------------------------------------|
G-|-------------------------------------------------------------------------|
D-|-----------------8-8-8-8-10-10-10-10-----------------8-8-8-8-10-10-10-10-|
A-|-5-5-5-5-5-5-5-5-6-6-6-6--8--8--8--8-5-5-5-5-5-5-5-5-6-6-6-6--8--8--8--8-|
E-|-3-3-3-3-3-3-3-3---------------------3-3-3-3-3-3-3-3---------------------|

e-|---------------------------------------------------------|
B-|---------------------------------------------------------|
G-|---------------------------------------------------------|
D-|-------------------------5-5-----------------------------|
A-|-5-5-5-5-3-3-3-3-5-5-5-5-3-3-5-5-5-5-3-3-3-3-8-8-8-7-7-7-|
E-|-3-3-3-3-1-1-1-1-3-3-3-3-----3-3-3-3-1-1-1-1-6-6-6-5-5-5-|

e-|---------------------------------------------------------|
B-|---------------------------------------------------------|
G-|---------------------------------------------------------|
D-|-------------------------5-5-----------------------------|
A-|-5-5-5-5-3-3-3-3-5-5-5-5-3-3-5-5-5-5-3-3-3-3-8-8-8-7-7-7-|
E-|-3-3-3-3-1-1-1-1-3-3-3-3-----3-3-3-3-1-1-1-1-6-6-6-5-5-5-|

e-|---------------------------------------------------------|
B-|---------------------------------------------------------|
G-|---------------------------------------------------------|
D-|-------------------------5-5-----------------------------|
A-|-5-5-5-5-3-3-3-3-5-5-5-5-3-3-5-5-5-5-3-3-3-3-8-8-8-7-7-7-|
E-|-3-3-3-3-1-1-1-1-3-3-3-3-----3-3-3-3-1-1-1-1-6-6-6-5-5-5-|

e-|---------------------------------------------------------|
B-|---------------------------------------------------------|
G-|---------------------------------------------------------|
D-|-------------------------5-5-----------------------------|
A-|-5-5-5-5-3-3-3-3-5-5-5-5-3-3-5-5-5-5-3-3-3-3-8-8-8-7-7-7-|
E-|-3-3-3-3-1-1-1-1-3-3-3-3-----3-3-3-3-1-1-1-1-6-6-6-5-5-5-|

e-|-------------------------------------------------------------------------|
B-|-------------------------------------------------------------------------|
G-|-------------------------------------------------------------------------|
D-|-----------------8-8-8-8-10-10-10-10-----------------8-8-8-8-10-10-10-10-|
A-|-5-5-5-5-5-5-5-5-6-6-6-6--8--8--8--8-5-5-5-5-5-5-5-5-6-6-6-6--8--8--8--8-|
E-|-3-3-3-3-3-3-3-3---------------------3-3-3-3-3-3-3-3---------------------|

e-|-------------------------------------------------------------------------|
B-|-------------------------------------------------------------------------|
G-|-------------------------------------------------------------------------|
D-|-----------------8-8-8-8-10-10-10-10-----------------8-8-8-8-10-10-10-10-|
A-|-5-5-5-5-5-5-5-5-6-6-6-6--8--8--8--8-5-5-5-5-5-5-5-5-6-6-6-6--8--8--8--8-|
E-|-3-3-3-3-3-3-3-3---------------------3-3-3-3-3-3-3-3---------------------|

e-|-------------------------------------------------|-----------------------|
B-|-------------------------------------------------|-----------------------|
G-|-------------------------------------------------|-----------------------|
D-|-------------------------------------------------|-----------------------|
A-|-5-5-5-8-8-8-5-5-5-8-8-8-5-5-5-8-8-8-5-5-5-8-8-8-|-5-5-5-5-5-5-5-5-5-5-5-|
E-|-3-3-3-6-6-6-3-3-3-6-6-6-3-3-3-6-6-6-3-3-3-6-6-6-|-3-3-3-3-3-3-3-3-3-3-3-|

e-|-------------------------------------------------|
B-|-------------------------------------------------|
G-|-------------------------------------------------|
D-|-------------------------------------------------|
A-|-5-5-5-5-5-5-5-5-5-5-5-5-5-5-5-5-5-5-5-5-5-5-5-5-|
E-|-3-3-3-3-3-3-3-3-3-3-3-3-3-3-3-3-3-3-3-3-3-3-3-3-|

12. Side One

riff.1
e-|-----------------------------------------|
B-|-----------------------------------------|
G-|-----------------------------------------|
D-|-----------5-7-9-9-9-----------9-9-9-9-9-|
A-|-2-5-7-7-7-3-5-7-7-7-2-5-7-7-7-7-7-7-7-7-|
E-|-0-3-5-5-5-----------0-3-5-5-5-----------|

riff.2
e-|-----------------------------------|
B-|-----------------------------------|
G-|-----------------------------------|
D-|------7----5----9-7-5-----7----5---|
A-|-5-2--5-7--3-5--7-5-3-5-2-5-7--3-5-|
E-|-3-0----5----3--------3-0---5----3-|

13. No Reason Why

e-------------------------------------------------------------------| THAT IS THE FIRST
B-------1----------1-------1------3-3-3-0-0-5-0-------1----------1-1| PART OF THE INTRO
G-----2-----2--2--0------2-----2--------------------2-----2--2--0--0| CLEAN
D---2------2--2--2-----2------2-------------------2------2--2--2---2|
A-0-------0--0--3----0-------0------------------0-------0--0--3----3|
E-------------------------------------------------------------------|
X=MUTED ^=PAUSE <<<=PICKSLIDE /=SLIDE
THEN THE SECOND PART OF THE INTRO(DISTORTED)
e------------------|-----------------------------------------------------------------|
B------------------|-----------------------------------------------------------------|
G-12-12-12-12-12-12|7-7-7-7-7-7-7-------------7-7-7-7-7-7-7-9-9-910-12-7-7-7-7-7-7-7-|
D-12-12-12-12-12-12|7-7-7-7-7-7-7-------------7-7-7-7-7-7-7-9-9-910-12-7-7-7-7-7-7-7-|
A-10-10-10-10-10-10|5-5-5-5-5-5-5-8-8-8-7-7/3-5-5-5-5-5-5-5-7-7-7-8-10-5-5-5-5-5-5-5-|
E----XX-XX-----X---|--X-X-X-X-X-X---------------X-X-X-X-X-X---X-X--------X-X-X-X-X-X-|

e-------------------------------------------------|
B-------------------------------------------------|
G-------------7-7-7-7-7-7-7----------------5------|
D-------------7-7-7-7-7-7-7----------------5------|
A-8-8-8-7-7/3-5-5-5-5-5-5-5-7-7-7-7-8-8\10-3-<<<<<|
E---------------X-X-X-X-X-X-----------------------|

THIRD PART OF INTRO ALSO DISTORTED:
e----------------------------------------------------------------------------------|
B----------------------------------------------------------------------------------|
G-77----------------------------------55-10-9-77-------------10-10-10-5-5-10-9-9-7-|
D-77----------77---------1010---------55-10-9-77----------77-10-10-10-5-5-10-9-9-7-|
A-55^^^^^^^^^^77^^^^^^^^^^88^^^^^^^^^^33--8-7-55^^^^^^^^^^77--8--8--8-3-3--8-7-7-5-|
E-------------55------------------------------------------55-----------------------|

VERSE:
e----------------------------------------------------------------|
B----------------------------------------------------------------|
G-7-7-7-7-7-7-7---------------10-10-10-10-10-10-10-5-5-5-10-9-9-7|
D-7-7-7-7-7-7-7-7-7-7-7-7-7-7-10-10-10-10-10-10-10-5-5-5-10-9-9-7|
A-5-5-5-5-5-5-5-7-7-7-7-7-7-7--8--8--8--8--8--8--8-3-3-3--8-7-7-5|
E---------------5-5-5-5-5-5-5------------------------------------|

CHORUS:
e---------------------------------------------------|
B---------------------------------------------------|
G-7-7-7-9-9-9-9-9-9-10-10-10-10-10-10-5-5-5-10-9-9-7|
D-7-7-7-9-9-9-9-9-9-10-10-10-10-10-10-5-5-5-10-9-9-7|
A-5-5-5-7-7-7-7-7-7--8--8--8--8--8--8-3-3-3--8-7-7-5|
E---X---X-X-X---X----X--X--X-----X------------------|

14. Bro Hymn

e-|-----------------------------------------|
B-|-----------------------------------------|
G-|-7--10---9---5----10---5---10---9---7----|
D-|-7--10---9---5----10---5---10---9---7----|
A-|-5---8---7---3-----8---3----8---7---5----|
E-|-----------------------------------------|

The end...
Comments