Pennywise - Pennywise Chords & Tabs

 

Pennywise Chords & Tabs

Pennywise Chords & Tabs

Version: 1 Type: Tab 0 ratings
1 star 2 stars 3 stars 4 stars 5 stars
comments

Pennywise Tab

From: "Jeff J. Munt" 
Subject: Pennywise by the band Pennywise

The song Pennywise by the band pennywise of the album pennywise

e-----------------------------------------------------------------------------
B-----------------------------------------------------------------------------
G-------------7-7-------------7-7-------------7-7-9-9-9-9-9-9-9-9-------------
D-9-9-9-9-5-5-7-7-9-9-9-9-5-5-7-7-9-9-9-9-5-5-7-7-9-9-9-9-9-9-9-9-------------
A-9-9-9-9-5-5-5-5-9-9-9-9-5-5-5-5-9-9-9-9-5-5-5-5-7-7-7-7-7-7-7-7-------------
E-7-7-7-7-3-3-----7-7-7-7-3-3-----7-7-7-7-3-3---------------------------------
[ Tab from: http://www.guitartabs.cc/tabs/p/pennywise/pennywise_tab.html ]
Thats the main riff that basically stays the same throughout the entire song
with just some palm mutes added in one of the later verses

Chorus:
e-----------------------------------------------------------------------------
B-----------------------------------------------------------------------------
G-7-9-7-9-7-----------------7-9-7-9-7-----------------------------------------
D-7-9-7-9-7-9-9-9-9-9-9-9-9-7-9-7-9-7-7-7-7-7-7-7-7-7-------------------------
A-5-7-5-7-5-9-9-9-9-9-9-9-9-5-7-5-7-5-7-7-7-7-7-7-7-7-------------------------
E-----------7-7-7-7-7-7-7-7-----------5-5-5-5-5-5-5-5-------------------------

thats basically the whole damn song...not much to it at all
Comments