Pennywise - Pennywise Chords & Tabs

 

Pennywise Chords & Tabs

Pennywise Chords & Tabs

Version: 1 Type: Bass Tab 0 ratings
1 star 2 stars 3 stars 4 stars 5 stars
comments

Pennywise Bass Tab

Band:Pennywise
Song:Pennywise
=============================================================================================

Verse:
Play 3x's
G------------------------------------------------------------
D-------------------------------------333333-3---------------
A--333----5--333-----5----333-----5--------------------------
E------3----------3------------3-----------------------------

Chourus:
Play 2x's
G------------------------------------------------------------
D--0-2-0-2-0----------0-2-0-2-0------------------------------
A------------2222222-----------0000000-----------------------
E------------------------------------------------------------

REPEAT Verse & Chorus

Bridge to slower part:
(Play Short)
G------------------------------------------------------------
D--------------2------2--------------------------------------
A--3---5--3---5--3---5----3----------------------------------
E----3------3------3-----------------------------------------
[ Tab from: http://www.guitartabs.cc/tabs/p/pennywise/pennywise_btab.html ]
Slower Verse:
Play 2x's
G------------------------------------------------------------
D-------------------------------------333333-3---------------
A--333------5--333------5--333-----5-------------------------
E------333---------333---------333---------------------------

Slower Chorus:
Play 2x's
G------------------------------------------------------------
D--0-2-0-2-0----------0-2-0-2-0------------------------------
A------------2222222-----------0000000-----------------------
E------------------------------------------------------------

G------------------------------------------------------------
D-------------------------------------333333-3(hold)---------
A--333------5--333------5--333-----5-------------------------
E------333---------333---------333---------------------------

Ending:
G------------------------------------------------------------
D------------------------------------------------------------
A--333----5--333-----5----333-----5--------------------------
E------3----------3------------3-----0(hold)---7\0(hold)--0--

Figured out and corrected by Sam of the pee pee band...

Comments