Pennywise - Peaceful Day Chords & Tabs

 

Peaceful Day Chords & Tabs

Pennywise Chords & Tabs

Version: 2 Type: Bass Tab 0 ratings
1 star 2 stars 3 stars 4 stars 5 stars
comments

Peaceful Day Bass Tab

Song Title: Peaceful Day
Artist: Pennywise
----------------------------------------------

best viewed using courier new font

PENNYWISE - "Peaceful Day" - Bass Tab

Intro:
|--------------------|
|*-0---0-0--0---0-0-*|
|*------------------*|(x7)
|--------------------|
   1 & a 2  3 & a 4

Verse:
|----------------|---------------|---------------|--------------|
|*-0-0-0-0-2-3---|-0-0-0-0-2-3---|-0-0-0-0-2-3---|-------------*|
|*-------------3-|-------------3-|-------------3-|-1-1-1-1-0---*|(x4)
|----------------|---------------|---------------|-----------1--|
   1 & 2 & 3 & 4   1 & 2 & 3 & 4   ! & 2 & 3 & 4   1 & 2 & 3 4
[ Tab from: http://www.guitartabs.cc/tabs/p/pennywise/peaceful_day_btab_ver_2.html ]
Chorus:
|----------|---------|---------|----------|
|*-0-0-0-0-|-3-3-3-3-|---------|---------*|
|*---------|---------|-2-2-2-2-|-3-3-3-3-*|(x2)
|----------|---------|---------|----------|
   1 2 3 4   1 2 3 4   1 2 3 4   1 2 3 4

|---------|---------|---------|---------|---------|---------|
|-0-0-0-0-|-3-3-3-3-|-5-5-5-5-|-2-2-2-2-|-0-0-0-0-|-3-3-3-3-|
|---------|---------|---------|---------|---------|---------|
|---------|---------|---------|---------|---------|---------|
  1 2 3 4   1 2 3 4   1 2 3 4   1 2 3 4   1 2 3 4   1 2 3 4 
|---------|
|-2-2-2-2-|
|---------|
|---------|
  1 2 3 4
|----------|----------|
|*-0-0-0-0-|-3-3-3-3-*|
|*---------|---------*|(x3)
|----------|----------|
   1 2 3 4   1 2 3 4
|-------------|
|-------------|
|-1-1-1-1-0---|
|-----------1-|
  1 & 2 & 3 4 

Verse

Bridge:


Chorus


Submitted by:  Jo Taylor (viking@powerup.com.au)
Comments