Pennywise - Nowhere Fast Chords & Tabs

 

Nowhere Fast Chords & Tabs

Pennywise Chords & Tabs

Version: 2 Type: Bass Tab 0 ratings
1 star 2 stars 3 stars 4 stars 5 stars
comments

Nowhere Fast Bass Tab

Song:nowhere fast
Band: pennywise
Album: full circle
tabbed by: Carlos Pino  < lupimo@ctcreuna.cl >

    intro & verse
G:---------------------------------------------------------------
D:---------------------------------------------------------------
A:-7-5----------3-------------7-5----------3-5-7-7-7------
E:-------5-5-5----3-0-0-0--------5-5-5--------------------

    chorus
G:---------------------------------------------------------------
D:---------------------------------------------------------------
A:-----------------------5-----5--------------------------------
E:-0-0-0-0-0-0-0-0-----5-----5----------------------------


G:---------------------------------------------------------------
D:---------------------------------------------------------------
A:-3-3-3---------3-3-3---------5-5-5---------5-5-5--------
E:---------3-3-3---------3-3-3---------5-5-5---------5-5-5
[ Tab from: http://www.guitartabs.cc/tabs/p/pennywise/nowhere_fast_btab_ver_2.html ]
G:---------------------------------------------------------------
D:---------------------------------------------------------------
A:-3-3-3---------3-3-3--------5-5-5---------5-5-5--------
E:---------3-3-3---------3-3-3--------5-5-5---------5-5-5

    bridge
G:---------------------------------------------------------------
D:---------------------------------------------------------------
A:-5-5-5-5-5-5-5-5----------------------7-7-7-7-7-5-7-7-7-7-7-5-5-5-5-5-5-5-5
E:----------------------5-5-5-5-5-5-5-5--------------------


G:---------------------------------------------------------------
D:---------------------------------------------------------------
A:--------------------------------------------------------------5-5-5-5-5-5-5-5-
E:-5-5-5-5-5-5-5-5-0-0-0-0-0-0-3-0-0-0-0-0-0-3------------------------5-5-5-5-5-5-5-5

G:---------------------------------------------------------------
D:---------------------------------------------------------------
A:-------7-7-7-7-7-5-7-7-7-7-7--5-5-5-5-5-5-5-5----
E:-5-5--------------------------------------------5-5-5-5-5-5-5-5-0-0-0-0-0-0-0-0

Comments