Pennywise - Nothing Chords & Tabs

 

Nothing Chords & Tabs

Pennywise Chords & Tabs

Version: 1 Type: Tab 0 ratings
1 star 2 stars 3 stars 4 stars 5 stars
comments

Nothing Tab

   
pennywise
nothing
unknown road
----------------------------------------------------------------------------
tabber: Wobbler
standard tuning
----------------------------------------------------------------------------
this is the best song of unknown road...
i think this version sounds great,but maybe it isnt 100% because the song is
very fast and sounds sometimes very weird...but hf and R A T E !

b(x)-bend string that it sounds like x 
 =  -hold the bend and pick 
r(x)-release the bend that it sounds like x

intro lead
e|------------------------------------------------------------------|
B|------------------------------------------------------------------|
G|-7~--------------10\9-10~--------9------------7~--------10-----12-|
D|-x----------------x-x--x---------x7~----------x----------x------x-|
A|-5~---------------8\7--8~--------7x-----------5~---------8-----10-|
E|----------------------------------5~------------------------------|

intro rythm
e|------------------------------------------------------------------|
B|------------------------------------------------------------------|
G|-7-7------------------7-7----------------------7-7----------------|
D|-7-7-8-8-7-333-5--3/5-7-7-8-8-7-3/5/8-7--------7-7-8-8-7-333-5-55-|
A|-5-5-8-8-7-333-5--3/5-5-5-8-8-7-3/5/8-7-101010-5-5-8-8-7-333-5-55-|
E|-----6-6-5-111-3--1/3-----6-6-5-1/3/6-5--8-8-8-----6-6-5-111-3-33-|
pm                                        ......

intro end lead
e|--------------------|
B|--------------------|
G|-141414141414141414-|
D|--x-x-x-x-x-x-x-x-x-|
A|-121212121212121212-|
E|--------------------|

intro end rythm
e|--------------------|
B|--------------------|
G|--------------------|
D|-7-7-7-7-7-7-7-7-7--|
A|-7-7-7-7-7-7-7-7-7--|
E|-5-5-5-5-5-5-5-5-5--|

lick A
e|-----------------|
B|-----------------|
G|-14b(15)=======--|
D|-----------------|
A|-----------------|
E|-----------------|

verse \"life...-i was a lonely man"\
e|--------------------------------------------------------|
B|--------------------------------------------------------|
G|-7--------------------------7---------------------------|
D|-7-77-8----7---3----5----5--7-77-8----7--3-----7--------|
A|-5-55-8-88-7-7-3-33-5-55-5--5-55-8-88-7--3-5-8-7-101010-|
E|------6-66-5-5-1-11-3-33-3-------6-66-5--1-3-6-5--8-8-8-|
pm   ..   ..   .   ..   ..      ..   ..      . .   

verse \"with my lead boots nailed to the floor dancing the best that i can"\
e|---------------------------------------------|
B|---------------------------------------------|
G|-7-------------------------------------------|
D|-7-77-8----7---3----5----5-7-7-7-7-7-7-7-7-7-|
A|-5-55-8-88-7-7-3-33-5-55-5-7-7-7-7-7-7-7-7-7-|
E|------6-66-5-5-1-11-3-33-3-5-5-5-5-5-5-5-5-5-|
pm   ..   ..   .   ..   ..    

lick B
e|----------------|
B|----------------|
G|-10b(11)r(10.5)-|
D|----------------|
A|----------------|
E|----------------|

verse \"sweets...-took the pain away"\
e|--------------------------------------------------------|
B|--------------------------------------------------------|
G|-7--------------------------7---------------------------|
D|-7-77-8----7---3----5----5--7-77-8----7--3-----7--------|
A|-5-55-8-88-7-7-3-33-5-55-5--5-55-8-88-7--3-5-8-7-101010-|
E|------6-66-5-5-1-11-3-33-3-------6-66-5--1-3-6-5--8-8-8-|
pm   ..   ..   .   ..   ..      ..   ..      . .   

verse \"i saw a cold death at the end of the line and so i started to pray"\
e|---------------------------------------------|
B|---------------------------------------------|
G|-7-------------------------------------------|
D|-7-77-8----7---3----5----5-7-7-7-7-7-7-7-7-7-| then
A|-5-55-8-88-7-7-3-33-5-55-5-7-7-7-7-7-7-7-7-7-| pickslide
E|------6-66-5-5-1-11-3-33-3-5-5-5-5-5-5-5-5-5-|
pm   ..   ..   .   ..   ..
  
chorus \"up towards the sky but knew no one would answer me........"\
e|------------------------------------------------------------------------|
B|------------------------------------------------------------------------|
G|-77-7------------------77------------------------5/77-7-----------------|
D|-77-7--88---33---55-33-77---88----3/5/8-7--------5/77-7-88---33---55-55-|
A|-55-5--88-7733-3355-33-55-8888-77-3/5/8-7-777777-3/55-5-88-7733-3355-55-|
E|----- -66-5511-1133-11----6666-55-1/3/6-5-555555--------66-5511-1133-33-|
pm          ..   ..         ..   ..         ......           ..   ..

chorus \"...oh my god why has thou forsaken me"\
e|-----------------------|
B|----------10b(11)r(10)-|
G|-----------------------|
D|-77-7-77---------------|
A|-77-7-77---------------|
E|-55-5-55---------------|
  
chorus \"i asked the teachers who thaught me rules to obey..."\\
e|------------------------------------------------------------------------|
B|------------------------------------------------------------------------|
G|-77-7------------------77------------------------5/77-7-----------------|
D|-77-7-88---33---55-----77---88----3/5/8-7--------5/77-7-88---33---55-55-|
A|-55-5-88-7733-3355-555-55-8888-77-3/5/8-7-777777-3/55-5-88-7733-3355-55-|
E|------66-5511-1133-333----6666-55-1/3/6-5-555555--------66-5511-1133-33-|
pm         ..   ..   ...    ..   ..         ......           ..   ..

chorus \"...no reason,no rite...nothing feels fine to-"\
e|-------------------------|
B|-------------------------|
G|-------------------------|
D|-77-7-77-----------------|
A|-77-7-77-\\\pickslide\\\-|
E|-55-5-55-----------------|

after chorus \"-night..."\
e|------------------------------------------------------------------|
B|------------------------------------------------------------------|
G|-7-7------------------7-7----------------------7-7----------------|
D|-7-7-8-8-7-333-5--3/5-7-7-8-8-7-3/5/8-7--------7-7-8-8-7-333-5-55-|
A|-5-5-8-8-7-333-5--3/5-5-5-8-8-7-3/5/8-7-101010-5-5-8-8-7-333-5-55-|
E|-----6-6-5-111-3--1/3-----6-6-5-1/3/6-5--8-8-8-----6-6-5-111-3-33-|
pm                                        ......
[ Tab from: http://www.guitartabs.cc/tabs/p/pennywise/nothing_tab.html ]
after chorus end 
e|--------------------|
B|--------------------|
G|--------------------|
D|-7-7-7-7-7-7-7-7-7--|
A|-7-7-7-7-7-7-7-7-7--|
E|-5-5-5-5-5-5-5-5-5--|

lick B 
e|----------------|
B|----------------|
G|-10b(11)r(10.5)-|
D|----------------|
A|----------------|
E|----------------|

verse \"crime...-it was a price to pay"\
e|--------------------------------------------------------|
B|--------------------------------------------------------|
G|-7--------------------------7---------------------------|
D|-7-77-8----7---3----5----5--7-77-8----7--3-----7--------|
A|-5-55-8-88-7-7-3-33-5-55-5--5-55-8-88-7--3-5-8-7-101010-|
E|------6-66-5-5-1-11-3-33-3-------6-66-5--1-3-6-5--8-8-8-|
pm   ..   ..   .   ..   ..      ..   ..      . .   

verse \"i found the whole world as guilty as i it took the danger away"\
e|---------------------------------------------|
B|---------------------------------------------|
G|-7-------------------------------------------|
D|-7-77-8----7---3----5----5-7-7-7-7-7-7-7-7-7-|
A|-5-55-8-88-7-7-3-33-5-55-5-7-7-7-7-7-7-7-7-7-|
E|------6-66-5-5-1-11-3-33-3-5-5-5-5-5-5-5-5-5-|
pm   ..   ..   .   ..   ..    

lick A
e|-----------------|
B|-----------------|
G|-14b(15)=======--|
D|-----------------|
A|-----------------|
E|-----------------|

verse \"hate...-it was so easy to do"\
e|--------------------------------------------------------|
B|--------------------------------------------------------|
G|-7--------------------------7---------------------------|
D|-7-77-8----7---3----5----5--7-77-8----7--3-----7--------|
A|-5-55-8-88-7-7-3-33-5-55-5--5-55-8-88-7--3-5-8-7-101010-|
E|------6-66-5-5-1-11-3-33-3-------6-66-5--1-3-6-5--8-8-8-|
pm   ..   ..   .   ..   ..      ..   ..      . .   

verse \"you just directed all your anger at fear and then you follow it through"\
e|---------------------------------------------|
B|---------------------------------------------|
G|-7-------------------------------------------|
D|-7-77-8----7---3----5----5-7-7-7-7-7-7-7-7-7-| then 
A|-5-55-8-88-7-7-3-33-5-55-5-7-7-7-7-7-7-7-7-7-| pickslide
E|------6-66-5-5-1-11-3-33-3-5-5-5-5-5-5-5-5-5-|
pm   ..   ..   .   ..   ..    

chorus \"i went to churches and schools to decide for me......"\
e|------------------------------------------------------------------------|
B|------------------------------------------------------------------------|
G|-77-7------------------77------------------------5/77-7-----------------|
D|-77-7--88---33---55-33-77---88----3/5/8-7--------5/77-7-88---33---55-55-|
A|-55-5--88-7733-3355-33-55-8888-77-3/5/8-7-777777-3/55-5-88-7733-3355-55-|
E|----- -66-5511-1133-11----6666-55-1/3/6-5-555555--------66-5511-1133-33-|
pm          ..   ..         ..   ..         ......           ..   ..

chorus \"...oh my god oh why has thou forsaken me"\
e|-----------------------|
B|-----------------------|
G|-----------------------|
D|-77-7-77---------------|
A|-77-7-77-\\pickslide\\-|
E|-55-5-55---------------|

bridge \"i don't need to,i don't want do,i don't want to wonder why..."\
e|-----------------------------------------------------------------|
B|-----------------------------------------------------------------|
G|-77-7-77-8---------8-77-7-77-8---------------8-77-7-77-8---------|
D|-77-7-77-8-88-8-88-8-77-7-77-8-1010-10-10----8-77-7-77-8-88-8-88-|
A|-55-5-55-6-88-8-88-6-55-5-55-6-1010-10-10----6-55-5-55-6-88-8-88-|
E|-----------66-6-66--------------8-8--8--8///-------------66-6-66-|

bridge \"...well you can fuck off and die...you do not know..."\
e|-------------------------------------------------------------|
B|-------------------------------------------------------------|
G|-8-1010-10-88--------------------5-77-7-77-------------------|
D|-8-1010-10-88-77-55-5----88-8-88-5-77-7-77-88-8-88-7-55-5-55-|
A|-6--8-8--8-66-55-55-5----88-8-88-3-55-5-55-88-8-88-7-55-5-55-|
E|-----------------33-3\\\-66-6-66-----------66-6-66-5-33-3-33-|
pm              ..

bridge \"...give me some answers for my life"\
e|-------------------------------------|
B|-------------------------------------|
G|---------5-77-7-77-1010-10-1010-10---|
D|-88-8-88-5-77-7-77-1010-10-1010-10-7-|
A|-88-8-88-3-55-5-55--8-8--8--8-8--8-7-|
E|-66-6-66---------------------------5-|

outro \"now...-got some explained to do"\
e|-----------------------------------------------|
B|-----------------------------------------------|
G|-7-7------------------7-7----------------------|
D|-7-7-8-8-7-333-5--3/5-7-7-8-8-7-3/5/8-7--------|
A|-5-5-8-8-7-333-5--3/5-5-5-8-8-7-3/5/8-7-101010-|
E|-----6-6-5-111-3--1/3-----6-6-5-1/3/6-5--8-8-8-|
pm                                        ......

outro \"ive got come up with solutions in time before my future is through"\
e|------------------------------------------|
B|------------------------------------------|
G|-7-7--------------------------------------|
D|-7-7-8-8-7-333-5-55-7-7-7-7-7-7-7-7-7-7-7-|
A|-5-5-8-8-7-333-5-55-7-7-7-7-7-7-7-7-7-7-7-|
E|-----6-6-5-111-3-33-5-5-5-5-5-5-5-5-5-5-5-|

outro \"hope...-for my new promise today"\
e|-----------------------------------------------|
B|-----------------------------------------------|
G|-7-7------------------7-7----------------------|
D|-7-7-8-8-7-333-5--3/5-7-7-8-8-7-3/5/8-7--------|
A|-5-5-8-8-7-333-5--3/5-5-5-8-8-7-3/5/8-7-101010-|
E|-----6-6-5-111-3--1/3-----6-6-5-1/3/6-5--8-8-8-|
pm                                        ......

outro \"still i got this strange feeling that time is slowly slipping away"\
e|------------------------------------------|
B|------------------------------------------|
G|-7-7--------------------------------------|
D|-7-7-8-8-7-333-5-55-7-7-7-7-7-7-7-7-7-7-7-|
A|-5-5-8-8-7-333-5-55-7-7-7-7-7-7-7-7-7-7-7-|
E|-----6-6-5-111-3-33-5-5-5-5-5-5-5-5-5-5-5-|

outro \"...slipping away"\
e|----|
B|----|
G|--7-|
D|--7-|
A|--5-|
E|----|

so thats it...this song was really hard work so please rate!!!
the lyrics aren't similar to the chords they only show when you have to start a new part...

email: el_diablo7th@freenet.de
cYa!
Comments