Pennywise - No Reason Why Chords & Tabs

 

No Reason Why Chords & Tabs

Pennywise Chords & Tabs

Version: 2 Type: Bass Tab 0 ratings
1 star 2 stars 3 stars 4 stars 5 stars
comments

No Reason Why Bass Tab

-----------------------------------------
No Reason Why-Pennywise
-----------------------------------------

Intro

-----------|------------------------------
0--7/12-|-12-10-------------------0
-----------|----------12-11--11/0----
-----------|------------------------------

---------------------------|------------------
---------0-0--5-5-5----|-------5--------0
---------------------------|------------------
---------------------------|------------------
[ Tab from: http://www.guitartabs.cc/tabs/p/pennywise/no_reason_why_btab_ver_2.html ]
------------------------------------|-------------------------------------
---------------------3-3-3--2--5|----------------------2-2-2--3--5
5--5-5-5-5-5-5-----------------|5--5-5-5-5-5-5----------------- (x2)
------------------------------------|-------------------------------------

verse and chorus

---------------------------------------------------------------------------------------------
----------------------------------------------3-3-3-3-3-3-3-3-----------------5--3---
5-5-5-5-5-5-5-5--------------------------------------------------3-3-3-3----------5(x23)
-----------------------5-5-5-5-5-5-5-5-------------------------------------------------

on chorus, play slightly slower

--------------------------------------|---------------------------------------------
----------------------3-3-3--2--5-|-----------------------2-2-2--3--5--------
5--5-5-5-5-5-5-------------------|-5--5-5-5-5-5-5-------------------0--5(x2)
--------------------------------------|---------------------------------------------




Comments