Pennywise - My Own Way Chords & Tabs

 

My Own Way Chords & Tabs

Pennywise Chords & Tabs

Version: 1 Type: Tab 0 ratings
1 star 2 stars 3 stars 4 stars 5 stars
comments

My Own Way Tab

Band: Pennywise
Song: My Own Way
Album: Straight Ahead

Intro:

E|-----------------(4x)-----------------------|
B|--------------------------------------------|
G|-------55x------------------55x--------7-5--|
D|--2xx--55x--55xx--7-5--2xx--55x--55xx--7-5--|
A|--2xx--33x--55xx--7-5--2xx--33x--55xx--5-3--|
E|--0xx-------33xx--5-3--0xx-------33xx-------|

E|--------------------------------------------|
B|----------------101010101010--121212121212--|
G|--999999999999---9-9-9-9-9-9---9-9-9-9-9-9--|
D|--------------------------------------------|
A|----------------(2x)------------------------|
E|--------------------------------------------|

Verse: Play 2x

E|------------------------------------------------------|
B|--------xxxx----------------------xxxx--------xx--xx--|
G|--xxxx--5555--xxxx--xx--xx--xxxx--5555--xxxx--77--55--|
D|--2222--5555--5555--77--55--2222--5555--5555--77--55--|
A|--2222--3333--5555--77--55--2222--3333--5555--55--33--|
E|--0000--------3333--55--33--0000--------3333----------|

Pre-Chorus: Play 2x

(I don't give a damn...)
E|-------------------------------------------------|
B|-------------------------------------------------|
G|--------5555--------------------5555--------4-5--|
D|--2222--5555--5555--7777--2222--5555--5555--4-5--|
A|--2222--3333--5555--7777--2222--3333--5555--2-3--|
E|--0000--------3333--5555--0000--------3333-------|

Chorus:
[ Tab from: http://www.guitartabs.cc/tabs/p/pennywise/my_own_way_tab.html ]
(I don't know if I...)
E|-------------------------(3x)-------------|
B|------------------------------------------|
G|------------55555555----------------------|
D|--22222222--55555555--55555555--77777777--|
A|--22222222--33333333--55555555--77777777--|
E|--00000000------------33333333--55555555--|

(We can't compromise...)
E|------------------------------------|
B|------------------------------------|
G|------------55555555--777777777777--|
D|--22222222--55555555--777777777777--|
A|--22222222--33333333--555555555555--|
E|--00000000--------------------------|

Bridge:

E|-----------(3x)------------|------------------------|
B|---------------------------|------------------------|
G|--12-11--12-11--12-11-9-7--|--12-11--12-11--12-14~--|
D|---------------------------|------------------------|
A|---------------------------|------------------------|
E|---------------------------|------------------------|

(I don't care...)
E|----------------(4x)------|
B|--------------------------|
G|--------5555--------------|
D|--2222--5555--5555--7777--|
A|--2222--3333--5555--7777--|
E|--0000--------3333--5555--|

(I don't care if you...)
E|-------------------------(4x)-------------|
B|------------------------------------------|
G|------------55555555----------------------|
D|--22222222--55555555--55555555--77777777--|
A|--22222222--33333333--55555555--77777777--|
E|--00000000------------33333333--55555555--|
Comments