Pennywise - My Own Way Chords & Tabs

 

My Own Way Chords & Tabs

Pennywise Chords & Tabs

Version: 1 Type: Bass Tab 0 ratings
1 star 2 stars 3 stars 4 stars 5 stars
comments

My Own Way Bass Tab

                                My own way/Pennywise
                               Album: Straight Ahead

Tabbed by Jonathan St-Pierre

Intro, Fill:
G|---------9------|
D|-----------10---|
A|-7--/7--------7-|
E|---0------------|


Verse:
G|------------------------------|
D|------------------------------|
A|---53-53---53-75---53-53---57-| (x2)
E|-0-------0-------0-------0----|


Pre-Chorus:
G|---------------------------------|
D|---------------------------------|
A|---53-53---53-75---53-53---53-7--| (x2)
E|-0-------0-------0-------0-----5-|


Chorus:
G|-------|-------|-------|------|
D|-------|-------|-------|------|
A|-3---5-|-3---5-|-3---5-|-3--5-|
E|---5---|---5---|---5---|------|

[ Tab from: http://www.guitartabs.cc/tabs/p/pennywise/my_own_way_btab.html ]
Bridge:
G|---------------------------------------------|
D|---------------------------------------------|
A|---/7---/19---19----19-------19--------------|
E|-0---------20----20----17-20-----20-17-15-12-|

After, play...
  Pre-Chorus (x2)
  Chorus
  Fill
  Verse
  
********----------------------------------********
    For the 2nd half of the song, just follow!

                 /¯¯¯¯¯¯¯¯.1¯\ /¯¯¯¯¯¯¯¯.2¯\ /¯¯¯¯¯¯¯¯.3¯\
G|--------------|-------------|-------------|-------------|
D|--------------|-------------|-------------|-------------|
A|-----3333-----|-0h2h3 0h2h3-|-0h3h5-0h3h5-|-0h2h3-0h2h3-|
E|-5555----3333-|-------------|-------------|-------------|

G|---------------------|------------------|------------------|--------------------|
D|---------------------|------------------|------------------|--------------------|
A|------3333-5555-5555-|-----3333----3333-|-----3333----5555-|-----3333-5555-5555-|
E|-5555----------------|-5555----3333-----|-5555----3333-----|-5555---------------|

End:
G|---------------------| 
Comments