Pennywise - My Own Country Chords & Tabs

 

My Own Country Chords & Tabs

Pennywise Chords & Tabs

Version: 2 Type: Bass Tab 0 ratings
1 star 2 stars 3 stars 4 stars 5 stars
comments

My Own Country Bass Tab

   
                              My own country/Pennywise
                               Album: Straight Ahead

Tabbed by Jonathan St-Pierre


Verse:
G|-------------|-------------|-------------|--------------|
D|-------------|-------------|-------------|--------------|
A|-0h2222-2222-|-0h2222-2222-|-0-----------|-0-----0------|
E|-------------|-------------|--h3333-3333-|--0000--h3333-|

[ Tab from: http://www.guitartabs.cc/tabs/p/pennywise/my_own_country_btab_ver_2.html ]
Chorus:             (x2)
G|---------------------|---------------------|----------------------|----------|
D|---------------------|---------------------|*--------------------*|----------|
A|-2225-2225----5------|-2225-2225----5-7777-|*-2225-2225----5-----*|-----2222-|
E|-----------333--5555-|-----------333-------|-----------333--5555--|-0000-----|

Then play:
  Verse
  Chorus
  Verse
  Chorus

Bridge: (play very fast!!!)
G|--------------|--------------|--------------|-------------------------|
D|--------------|--------------|--------------|-------------------------|
A|-20-----------|-20-------0h2-|-20-----------|-20--------0h2--/3/4/5/7-|
E|---31-00h5-00-|---31-00h5----|---31-00h5-00-|---31-00h5---------------|

Then play:
  Verse
  Chorus
  Bridge

...and end with:
G|-----------------|
D|-----------------|
A|-0h2222-2222-0h2-|
E|-----------------|


For comments or corrections, e-mail me at jonath01@hotmail.com
Comments