Pennywise - My God Chords & Tabs

 

My God Chords & Tabs

Pennywise Chords & Tabs

Version: 3 Type: Tab 0 ratings
1 star 2 stars 3 stars 4 stars 5 stars
comments

My God Tab

   
-------------------------------------------------------------------------------
			     My God - PENNYWISE
-------------------------------------------------------------------------------

By:  Graeme Fox   (shoesonbackwards@hotmail.com)  www.shoesonbackwards.cjb.net


INTRO
e|---------------------------|
B|---------------------------|
G|-------------------------X4|
D|-3---------6-6-6-6-5-5-5---|
A|-3---------6-6-6-6-5-5-5---|
E|-1-2////6--4-4-4-4-3-3-3---|

harmonic ^ slide

INTRO cont.
e|------------------------------------------------------------|
B|------------------------------------------------------------|
G|------------------------------------------------------------|
D|-1-1-11-11-10-6-6-6-8-10-11--1-1-11-11-10-6-6-6-13-13-13-13-|
A|-1-1-11-11-10-6-6-6-8-10-11--1-1-11-11-10-6-6-6-13-13-13-13-|
E|-3-3-9--9--8--4-4-4-6-8--9---3-3-9--9--8--4-4-4-11-11-11-11-|

INTRO cont.....
e|------------------------------------------------------------|
B|------------------------------------------------------------|
G|------------------------------------------------------------|
D|-1-1-11-11-10-6-6-6-8-10-11--3---------6-6-6-6-5-5-5--------|
A|-1-1-11-11-10-6-6-6-8-10-11--3---------6-6-6-6-5-5-5--------|
E|-3-3-9--9--8--4-4-4-6-8--9---1-2////6--4-4-4-4-3-3-3--------|

VERSE
e|------------------------------------------------------------|
B|------------------------------------------------------------|
G|------------------------------------------------------------|
D|-1-1-11-11-10-6-6-6-8-10-11--1-1-11-11-10-6-6-6-13-13-10-11-|
A|-1-1-11-11-10-6-6-6-8-10-11--1-1-11-11-10-6-6-6-13-13-10-11-|
E|-3-3-9--9--8--4-4-4-6-8--9---3-3-9--9--8--4-4-4-11-11-8--9--|
  <---------------------palm muted--------------------------->

VERSE cont.
e|------------------------------------------------------------|
B|------------------------------------------------------------|
G|------------------------------------------------------------|
D|-1-1-11-11-10-6-6-6-8-10-11--3--------6-6-6-6-5-5-5---------|
A|-1-1-11-11-10-6-6-6-8-10-11--3--------6-6-6-6-5-5-5---------|
E|-3-3-9--9--8--4-4-4-6-8--9---1-2////6-4-4-4-4-3-3-3---------|
  <-----palm muted---------->
[ Tab from: http://www.guitartabs.cc/tabs/p/pennywise/my_god_tab_ver_3.html ]
CHORUS
e|------------------------------------------------------------|
B|------------------------------------------------------------|
G|------------------------------------------------------------|
D|-1-1-11-11-10-6-6-6-8-10-11--1-1-11-11-10-6-6-6-13-13-13-13-|
A|-1-1-11-11-10-6-6-6-8-10-11--1-1-11-11-10-6-6-6-13-13-13-13-|
E|-3-3-9--9--8--4-4-4-6-8--9---3-3-9--9--8--4-4-4-11-11-11-11-|

CHORUS cont.....
e|------------------------------------------------------------|
B|------------------------------------------------------------|
G|------------------------------------------------------------|
D|-1-1-11-11-10-6-6-6-8-10-11--3---------6-6-6-6-5-5-5--------|
A|-1-1-11-11-10-6-6-6-8-10-11--3---------6-6-6-6-5-5-5--------|
E|-3-3-9--9--8--4-4-4-6-8--9---1-2////6--4-4-4-4-3-3-3--------|

INTERLUDE
e|---------------------------------------------------------------------------------|
B|---------------------------------------------------------------------------------|
G|---------------------------------------------------------------------------------|
D|-11-11-11-11-11-11-11-11-11-11-11-11-11-11-11-11-3-3-3-3-3-3-3-3-3-3-3-3-3-3-3-3-|
A|-11-11-11-11-11-11-11-11-11-11-11-11-11-11-11-11-3-3-3-3-3-3-3-3-3-3-3-3-3-3-3-3-|
E|-9--9--9--9--9--9--9--9--9--9--9--9--9--9--9--9--1-1-1-1-1-1-1-1-1-1-1-1-1-1-1-1-|
  <------------------------play this twice---------------------------------------->

INTERLUDE cont.
e|---------------------------------------------------------------------------|
B|---------------------------------------------------------------------------|
G|---------------------------------------------------------------------------|
D|-11-11-11-11-11-11-11-11-8-8-8-8-8-8-8-8-3-3-3-3-3-3-3-3-6-6-6-6-6-6-6-6---|
A|-11-11-11-11-11-11-11-11-8-8-8-8-8-8-8-8-3-3-3-3-3-3-3-3-6-6-6-6-6-6-6-6---|
E|-9--9--9--9--9--9--9--9--6-6-6-6-6-6-6-6-1-1-1-1-1-1-1-1-4-4-4-4-4-4-4-4---|

INTERLUDE cont....
e|---------------------------------------------------------------------------|
B|---------------------------------------------------------------------------|
G|---------------------------------------------------------------------------|
D|-8-8-8-8-8-8-8-8-10-10-10-10-10-10-10-10-----------------------------------|
A|-8-8-8-8-8-8-8-8-10-10-10-10-10-10-10-10-----------------------------------|
E|-6-6-6-6-6-6-6-6-8--8--8--8--8--8--8--8------------------------------------|

Those are all the parts you need (except for the solo) you shud be able to piece it 2gether.
===============================================================================
Comments