Pennywise - My God Chords & Tabs

 

My God Chords & Tabs

Pennywise Chords & Tabs

Version: 2 Type: Tab 1 rating
1 star 2 stars 3 stars 4 stars 5 stars
comments

My God Tab

  Song:My God
  Band:Pennywise
 Album:Land Of The Free?
Tuning:Eadgbe

Intro:
E|---------------------------------|
B|---------------------------------| 
G|---------------------------------| 4times
D|-3-3333333333-66665555-----------| 
A|-3-3333333333-66665555-----------|
E|-1-1111111111-44443333-----------|
     <   PM  >

THEN

Verse:
E|---------------------------------------------------------------------|
B|---------------------------------------------------------------------| 
G|----666-----333----666-----88-66----666-----3333---------------------| 
D|-33-666-666-333-33-666-666-88-66-33-666-666-3333-3-33333333-6666555--| 1times
A|-33-444-666-111-33-444-666-66-44-33-444-666-1111-3-33333333-6666555--|
E|-11-----444-----11-----444-------11-----444------1-11111111-4444333--|
                                                     < PM >
Chorus:
E|---------------------|        |----------------------------|
B|---------------------|        |----------------------------|					
G|---------------------|        |----------------------------|   both 2times
D|-3333333333333333-8-6|        |-333333333333333--66665555--|
A|-3333333333333333-8-6|3times  |-333333333333333--66665555--|
E|-1111111111111111-6-4| then   |-111111111111111--44443333--|
   <      PM      >               <      PM     >
[ Tab from: http://www.guitartabs.cc/tabs/p/pennywise/my_god_tab_ver_2.html ]
Refrain: 
E|--------------------------------------------------------------------|
B|--------------------------------------------------------------------| 
G|----666-----333----666-----88-66----666-----3333--------------------| 
D|-33-666-666-333-33-666-666-88-66-33-666-666-3333-3-333333-6666555---| 2times
A|-33-444-666-111-33-444-666-66-44-33-444-666-1111-3-333333-6666555---|
E|-11-----444-----11-----444-------11-----444------1-111111-4444333---|
                                                     < PM >
Interlude:
E|-------------------------------------------|
B|-------------------------------------------|
G|-66666666--------66666666---???????????----|
D|-66666666-333333-66666666---???????????----|
A|-44444444-333333-44444444---???????????----|
E|----------111111---------------------------|

End:                                                  Intro:4x
E|-------------------------|                          Verse:1x
B|-------------------------|                          Chorus:2x
G|-------------------------|                          Refrain:2x
D|----33333333-6666-555--3-|STOP!!!!!                 Chorus:2x
A|----33333333-6666-555--3-|                          Refrain:2x
E|----11111111-4444-333--1-|                          Interlude:1x
      <  PM  >                                        Verse:1x
                                                      Refrain:2
                                                      End:1x
Comments