Pennywise - My God Chords & Tabs

 

My God Chords & Tabs

Pennywise Chords & Tabs

Version: 1 Type: Bass Tab 0 ratings
1 star 2 stars 3 stars 4 stars 5 stars
comments

My God Bass Tab

   
No bass tab for this song yet, so I'll make one: here we go...

Intro:
G--------------------|
D--------------------| (X4)
A--------------------|
E-1-1111111-444-3333-|

Main riff:
G-------------------------|
D-------------------------|
A-----4-4-3-------1-1-3-4-|
E-1-1-------4-4-4---------|

G--------------------------|
D--------------------------|
A-----4-4-3-------4-66-4-3-|
E-1-1-------4-4-4----------|

Verse:
G----------------------|
D----------------------|
A-------443------11-34-|
E-11111-----4444-------|
[ Tab from: http://www.guitartabs.cc/tabs/p/pennywise/my_god_btab.html ]
G----------------------|
D----------------------|
A-------443------46643-|
E-11111-----4444-------|

Bridge:
G----------------------------------|
D----------------------------------|
A-4-4-4-4-4-4-666------------------|
E-----------------1-1-1111-1-1-111-|

G--------------------------------------------------------------|
D--------------------------------------------------------------|
A-4-44444\1-11-111-----------------4-444-44-6-666-66-----------|
E------------------1-1111/4-44-444-------------------1-1111111-|

There, that are all the parts of the song... you'll have to listen to the song to figure 
the order.
Please rate.
Comments