Pennywise - Living For Today Chords & Tabs

 

Living For Today Chords & Tabs

Pennywise Chords & Tabs

Version: 2 Type: Tab 0 ratings
1 star 2 stars 3 stars 4 stars 5 stars
comments

Living For Today Tab

   
LIVING FOR TODAY - Pennywise


By:pmw mt

Intro
none of the chord struming is exact. listen to the record and figure it out yourself. 
e|----------------------------------------------------------------------------|
B|----------------------------------------------------------------------------|
G|---------------------------101010\99-555-777-----1010/99-555----------------|
D|--7--------------------777-101010\99-555-777-777-1010/99-555-55\3/5---------|
A|--7--strum a few times-777-8-8-8-\77-333-555-777-8-8-/77-333-55\3/5---------|
E|--5--------------------555-------------------555-------------33\1/3---------|

e|------------------------------------------------------------------------------|
B|------------------------------------------------------------------------------|
G|------101010\99-555-777-----101010-121212-------------------------------------|
D|--777-101010\99-555-777-777-101010-121212-------------------------------------|
A|--777-8-8-8-\77-333-555-777-8-8-8--101010....then into verse wich is the same-|
E|--555-------------------555--------------------(listen to the record)---------|

chorus(palm muting changes later in song)
e|---------------------------------------------------------------------------|
B|---------------------------------------------------------------------------|
G|-------------------------------------------------1010-9--------------------|
D|--7------------------1010-5--7-------------------1010-9--x2----------------|
A|--7-> palm mute    <-1010-5--7->  palm mute    <-8-8--7--------------------|
E|--5-5555555555555555-8-8--3--5-55555555555555555---------------------------|
[ Tab from: http://www.guitartabs.cc/tabs/p/pennywise/living_for_today_tab_ver_2.html ]
slow part(change it up with palm muting) 
e|---------------------------------------------------------------------------|
B|---------------------------------------------------------------------------|
G|-----1010\9-55-77-----1010\9-5---------------------------------------------|
D|--77-1010\9-55-77--77-1010\9-5-5------3-5----------------------------------|
A|--77-8-8-\7-33-55--77-8-8-\7-3-5------3-5----------------------------------|
E|--55---------------55----------3-3\12/1-3----------------------------------|

===========


Date: Tue, 10 Oct 1995 17:48:29 -0600 (MDT)
From: Rambozo 
Subject: Living For Today by PENNYWISE


verse:
e-|-------------------------------------------------------------------------
B-|-------------------------------------------------------------------------
G-|---------10-10-10-10-5-5-5-5-7-7-7-7---------10-10-10-10-5-5-5-5---------
D-|-7-7-7-7-10-10-10-10-5-5-5-5-7-7-7-7-7-7-7-7-10-10-10-10-5-5-5-5-5-5-5-5-
A-|-7-7-7-7--8--8--8--8-3-3-3-3-5-5-5-5-7-7-7-7--8--8--8--8-3-3-3-3-5-5-5-5-
E-|-5-5-5-5-----------------------------5-5-5-5---------------------3-3-3-3-


e-|-------------------------------------------------------------------------
B-|-------------------------------------------------------------------------
G-|---------10-10-10-10-5-5-5-5-7-7-7-7---------10-10-10-10-12-12-12-12-12--
D-|-7-7-7-7-10-10-10-10-5-5-5-5-7-7-7-7-7-7-7-7-10-10-10-10-12-12-12-12-12--
A-|-7-7-7-7--8--8--8--8-3-3-3-3-5-5-5-5-7-7-7-7--8--8--8--8-10-10-10-10-10--
E-|-5-5-5-5-----------------------------5-5-5-5-----------------------------


e-|----------|-
B-|----------|-
G-|-12-12-12-|-
D-|-12-12-12-|-
A-|-10-10-10-|-
E-|----------|-

chorus:
e-|--------------------------------------------------|
B-|--------------------------------------------------|
G-|--------------------------------------------------|
D-|-7-x-x-7-x-x-7-x-x-7-x-x-7-x-x-7-x-x-10-10-10-10--|
A-|-7-x-x-7-x-x-7-x-x-7-x-x-7-x-x-7-x-x-10-10-10-10--|
E-|-5-x-x-5-x-x-5-x-x-5-x-x-5-x-x-5-x-x--8--8--8--8--|

i think thats it...
transcribed by Rambozo
Comments