Pennywise - Living For Today Chords & Tabs

 

Living For Today Chords & Tabs

Pennywise Chords & Tabs

Version: 1 Type: Tab 0 ratings
1 star 2 stars 3 stars 4 stars 5 stars
comments

Living For Today Tab

   
#----------------------------------PLEASE NOTE---------------------------------#
#This file is the author's own work and represents their interpretation of the #
#song. You may only use this file for private study, scholarship, or research. #
#------------------------------------------------------------------------------##
Date: Tue, 10 Oct 1995 17:48:29 -0600 (MDT)
From: Rambozo 
Subject: Living For Today by PENNYWISE


verse:
e-|-------------------------------------------------------------------------
B-|-------------------------------------------------------------------------
G-|---------10-10-10-10-5-5-5-5-7-7-7-7---------10-10-10-10-5-5-5-5---------
D-|-7-7-7-7-10-10-10-10-5-5-5-5-7-7-7-7-7-7-7-7-10-10-10-10-5-5-5-5-5-5-5-5-
A-|-7-7-7-7--8--8--8--8-3-3-3-3-5-5-5-5-7-7-7-7--8--8--8--8-3-3-3-3-5-5-5-5-
E-|-5-5-5-5-----------------------------5-5-5-5---------------------3-3-3-3-

[ Tab from: http://www.guitartabs.cc/tabs/p/pennywise/living_for_today_tab.html ]
e-|-------------------------------------------------------------------------
B-|-------------------------------------------------------------------------
G-|---------10-10-10-10-5-5-5-5-7-7-7-7---------10-10-10-10-12-12-12-12-12--
D-|-7-7-7-7-10-10-10-10-5-5-5-5-7-7-7-7-7-7-7-7-10-10-10-10-12-12-12-12-12--
A-|-7-7-7-7--8--8--8--8-3-3-3-3-5-5-5-5-7-7-7-7--8--8--8--8-10-10-10-10-10--
E-|-5-5-5-5-----------------------------5-5-5-5-----------------------------


e-|----------|-
B-|----------|-
G-|-12-12-12-|-
D-|-12-12-12-|-
A-|-10-10-10-|-
E-|----------|-

chorus:
e-|--------------------------------------------------|
B-|--------------------------------------------------|
G-|--------------------------------------------------|
D-|-7-x-x-7-x-x-7-x-x-7-x-x-7-x-x-7-x-x-10-10-10-10--|
A-|-7-x-x-7-x-x-7-x-x-7-x-x-7-x-x-7-x-x-10-10-10-10--|
E-|-5-x-x-5-x-x-5-x-x-5-x-x-5-x-x-5-x-x--8--8--8--8--|

i think thats it...
transcribed by Rambozo


Comments