Pennywise - Land Of The Free Chords & Tabs

 

Land Of The Free Chords & Tabs

Pennywise Chords & Tabs

Version: 2 Type: Bass Tab 0 ratings
1 star 2 stars 3 stars 4 stars 5 stars
comments

Land Of The Free Bass Tab

Intro: 
G|------------------------------|
D|------------------------------|x1
A|------22------22------22------|
D|-1111----1111----1111-----1-1-|

Verse: 
G|----------------------------------------------------------|
D|----------------------------------------------------------|x2
A|------22------------22-4-2-4------22------------2222-4444-|
D|-1111----4-6-4-1111----------1111----4-6-4-1111-----------|

Chorus: 
G|-----------------------------------------|
D|-----------------------------------------| X2
A|-----------2222-2222-----------4444-4444-|
D|-1111-1111-----------4444-4444-----------|

G|-----------------------------------------|
D|-----------------------------------------| X2
A|-----------2222-2222-----------1111-1111-|
D|-1111-1111-----------4444-4444-----------|

Intro
G|------------------------------|
D|------------------------------|
A|------22------22------22------|
D|-1111----1111----1111-----1-1-|

Verse: 
G|----------------------------------------------------------|
D|----------------------------------------------------------|x2
A|------22------------22-4-2-4------22------------2222-4444-|
D|-1111----4-6-4-1111----------1111----4-6-4-1111-----------|
[ Tab from: http://www.guitartabs.cc/tabs/p/pennywise/land_of_the_free_btab_ver_2.html ]
Chorus: 
G|-----------------------------------------|
D|-----------------------------------------| X2
A|-----------2222-2222-----------4444-4444-|
D|-1111-1111-----------4444-4444-----------|

G|-----------------------------------------|
D|-----------------------------------------| X2
A|-----------2222-2222-----------1111-1111-|
D|-1111-1111-----------4444-4444-----------|

Intro
G|------------------------------|
D|------------------------------|
A|------22------22------22------|
D|-1111----1111----1111-----1-1-|

Solo And Interlude 
G|-----------------------------------------|
D|-----------------------------------------|x4
A|-----------4444-4444-2222-2222-1111-1111-|
D|-1111-1111-------------------------------|

Intro
G|------------------------------|
D|------------------------------|
A|------22------22------22------|
D|-1111----1111----1111-----1-1-|

Chorus: 
G|-----------------------------------------|
D|-----------------------------------------| X2
A|-----------2222-2222-----------4444-4444-|
D|-1111-1111-----------4444-4444-----------|

G|-----------------------------------------|
D|-----------------------------------------| X2
A|-----------2222-2222-----------1111-1111-|
D|-1111-1111-----------4444-4444-----------|

Intro
G|------------------------------|
D|------------------------------|
A|------22------22------22------|
D|-1111----1111----1111-----1-1-|

Comments