Pennywise - Land Of The Free Chords & Tabs

 

Land Of The Free Chords & Tabs

Pennywise Chords & Tabs

Version: 1 Type: Bass Tab 0 ratings
1 star 2 stars 3 stars 4 stars 5 stars
comments

Land Of The Free Bass Tab

   
Song: Land of the free?
Band: Pennywise
Album: Land of the free?

Tabbed by Travis HAyes


Intro: 
G|------------------------------|
D|------------------------------|x1
A|------22------22------22------|
E|-0000----0000----0000-----0-0-|

Verse: 
G|----------------------------------------------------------|
D|----------------------------------------------------------|x2
A|------22------------22-4-2-4------22------------2222-4444-|
E|-0000----2-4-2-0000----------0000----2-4-2-0000-----------|

Chorus: 
G|-----------------------------------------|
D|-----------------------------------------|
A|-----------2222-2222-----------4444-4444-|
E|-0000-0000-----------2222-2222-----------|
[ Tab from: http://www.guitartabs.cc/tabs/p/pennywise/land_of_the_free_btab.html ]
G|-----------------------------------------|
D|-----------------------------------------|
A|-----------2222-2222-----------4444-4444-|
E|-0000-0000-----------2222-2222-----------|

G|-----------------------------------------|
D|-----------------------------------------|
A|-----------2222-2222-----------4444-4444-|
E|-0000-0000-----------2222-2222-----------|

G|-----------------------------------------|
D|-----------------------------------------|
A|-6666-6666-9999-9999-----------4444-4444-|
E|---------------------2222-2222-----------|

then:
Intro x1
Verse x1
Chorus x1
Intro x1

During solo and talking: 
G|-----------------------------------------|
D|-----------------------------------------|x4
A|-6666-6666-4444-4444-2222-2222-1111-1111-|
E|-----------------------------------------|

then:
Intro x1
Chorus x1
Intro x1

End with: E|-0-|
Comments