Pennywise - Land Down Under Chords & Tabs

 

Land Down Under Chords & Tabs

Pennywise Chords & Tabs

Version: 1 Type: Tab 0 ratings
1 star 2 stars 3 stars 4 stars 5 stars
comments

Land Down Under Tab

pennywise - land down under:
(after you learn this you can figure out the rest really fast)

g-----------------------------------------------------------------------
u----------------------------------------------------------------------
i------------------------------------------------------------------------
t---------5-5-5-5-----------------------------------------------------
a---------7-7-7-7--5-5-5-5---9-9-9-9----5-5---5-5----------------
r------------------7-7-7-7---7-7-7-7----3-3---7-7---------------
[ Tab from: http://www.guitartabs.cc/tabs/p/pennywise/land_down_under_tab.html ]
g-----------------------------------------------------------------------
u----------------------------------------------------------------------
i------------------------------------------------------------------------
t---------5-5-5-5-----------------------------------------------------
a---------7-7-7-7--5-5-5-5---9-9-9-9----5--x-x-x-x-x-x-x-------
r------------------7-7-7-7---7-7-7-7----3--x-x-x-x-x-x-x-------

g-----------------------------------------------------------------------
u----------------------------------------------------------------------
i------------------------------------------------------------------------
t---------5-5-5-5-----------------------------------------------------
a---------7-7-7-7--5-5-5-5---9-9-9-9----5-5---5-5----------------
r------------------7-7-7-7---7-7-7-7----3-3---7-7---------------

g-----------------------------------------------------------------------
u----------------------------------------------------------------------
i------------------------------------------------------------------------
t---------5-5-5-5-----------------------------------------------------
a---------7-7-7-7--5-5-5-5---9-9-9-9---slide down------------
r------------------7-7-7-7---7-7-7-7---slide down---------------


school sux.
Comments