Pennywise - Just For You Chords & Tabs

 

Just For You Chords & Tabs

Pennywise Chords & Tabs

Version: 2 Type: Bass Tab 0 ratings
1 star 2 stars 3 stars 4 stars 5 stars
comments

Just For You Bass Tab

SONG/JUST FOR YOU
BAND/PENNYWISE
troygrech@hotmail.com

INTRO
G:--------------------------------------
D:----------------3--3--------------333-
A:--------------------------------------
E:1114311111114311-11-11143111111143----

VERSE
G:------------|---------
D:------------|---------
A:---4-6666---|---------
E:111-4----64-|11143111-
[ Tab from: http://www.guitartabs.cc/tabs/p/pennywise/just_for_you_btab_ver_2.html ]
CHORUS
G:--------------------------------------
D:--------------------------------------
A:4444-1111-----1--------3-4444-1111----
E:----------1111-444-346-------------43-

CHORUS 2
G:--------------------------------------------
D:--------------------------------------------
A:4444-1111-----1--------34444-1111-----------
E:----------1111-444-346------------43111-111-

BRIDGE
G:------------|---------
D:------------|---------
A:---4-6666-8-|---------
E:111-4----6--|11143111-
Comments