Pennywise - Judgment Day Chords & Tabs

 

Judgment Day Chords & Tabs

Pennywise Chords & Tabs

Version: 1 Type: Tab 0 ratings
1 star 2 stars 3 stars 4 stars 5 stars
comments

Judgment Day Tab

   
-------------------------------------------------------------------------------
			     Judgment Day - Pennywise
-------------------------------------------------------------------------------
Tabbed by: Zach
Email: zachmoe25@msn.com

       This is my first tab, hope i done good!!!

[ Tab from: http://www.guitartabs.cc/tabs/p/pennywise/judgment_day_tab.html ]
Tuning: E A D G B E 
    Intro 2x: Guitar #1
e|-----------------------------------------------------------------------------------------|
B|-----------------------------------------------------------------------------------------|
G|-16-16-16-16-16-16-16-16-17-17-17-17-16-16-16-16-19-19-19-19-19-19-19-19-20-20-20-20-19--|
D|-----------------------------------------------------------------------------------------|
A|-----------------------------------------------------------------------------------------|
E|-----------------------------------------------------------------------------------------|
    Intro 2x: Guitar #2
e|---------------------------------------------------------------------------|
B|---------------------------------------------------------------------------|
G|---------------------------------------------------------------------------|
D|-2--------5--------7-------------------------------------------------------|
A|-2--x8----5--x4----7--x4---------------------------------------------------|
E|-0--------3--------5-------------------------------------------------------|
    Pre-Verse 2x
e|---------------------------------------------------------------------------|
B|---------------------------------------------------------------------------|
G|---------------------------------------------------------------------------|
D|-2~~~---5~~~---7~~~--------------------------------------------------------|
A|-2~~~---5~~~---7~~~--------------------------------------------------------|
E|-0~~~---3~~~---5~~~--------------------------------------------------------|
    Verse 2x: (palm-mute 3rd verse)
e|---------------------------------------------------------------------------|
B|---------------------------------------------------------------------------|
G|---------------------------------------------------------------------------|
D|-2---------5--------7------------------------------------------------------|
A|-2--x12----5--x8----7--x8--------------------------------------------------|
E|-0---------3--------5------------------------------------------------------|
    Pre-Chorus 1x
e|---------------------------------------------------------------------------|
B|---------------------------------------------------------------------------|
G|-7--------9----------------------------------------------------------------|
D|-7--x8----9--x8------------------------------------------------------------|
A|-5--------7----------------------------------------------------------------|
E|---------------------------------------------------------------------------|
    Chorus 4x
e|---------------------------------------------------------------------------|
B|---------------------------------------------------------------------------|
G|-------------------7-------------------------------------------------------|
D|-2--------5--------7--x4----7----------------------------------------------|
A|-2--x4----5--x4----5--------7--x4------------------------------------------|
E|-0--------3-----------------5----------------------------------------------|



| /  slide up
| \  slide down
| h  hammer-on
| p  pull-off
| ~  vibrato
| +  harmonic
| x  Mute note
===============================================================================
Comments