Pennywise - Its What You Do With It Chords & Tabs

 

Its What You Do With It Chords & Tabs

Pennywise Chords & Tabs

Version: 1 Type: Bass Tab 0 ratings
1 star 2 stars 3 stars 4 stars 5 stars
comments

Its What You Do With It Bass Tab

----------------------------------------------------
it`s what you do whit it / pennywise
----------------------------------------------------

tabbed by carlos pino 
[ Tab from: http://www.guitartabs.cc/tabs/p/pennywise/its_what_you_do_with_it_btab.html ]
 G]--------------------------------------------------------------------------
D]---------------------------------------------------------------------------
A]--3-3-3-2------------------3-3-3-2-----------------------------------
E]-------------3-5-5-5-5-5-------------3-5-5-5-5-5------------------
   too much time in the same place...etc
                        
G]---------------------------------------------------------------------------
D]---------------------------------------------------------------------------
A]-3-3-3-2------------------3-3-3-2------------------3-3-3-2--------------------------
E]------------3-5-5-5-5-5-------------3-5-5-5-5-5------------3-5-5-5-5--3-3-3-3
    it`s what you do whit it...etc

G]---------------------------------------------------------------------------
D]---------------------------------------------------------------------------
A]------------3-3-3-3-----------------------------------3-3-3-3-----------
E]-5-5-5-5------------5-5-5-5--1-1-1-1-5-5-5-5------------3-3-3-3
   I know I gotta listen to my mind...etc 
 
G]---------------------------------------------------------------------------
D]---------------------------------------------------------------------------
A]-3-3-3-3----------------------------------------------------------------
E]------------3-3-3-3--5-5-5-5-----------------------------------------
    get away...etc



Comments