Pennywise - Its Up To You Chords & Tabs

 

Its Up To You Chords & Tabs

Pennywise Chords & Tabs

Version: 2 Type: Tab 0 ratings
1 star 2 stars 3 stars 4 stars 5 stars
comments

Its Up To You Tab

pennywise-its up to you


*=palm mutes

|---------------------------------------------|
|---------------------------------------------|
|---------------------------------------------|
|----------10101010---------------------------|
|----7777--8-8-8--8---10101010----5555--------|
|----5555-------------8-8-8-8-----3333--------|
				   ***
[ Tab from: http://www.guitartabs.cc/tabs/p/pennywise/its_up_to_you_tab_ver_2.html ]
|---------------------------------------------|
|---------------------------------------------|
|---------------------------------------------|
|----------10101010---------------------------|
|----7777--8-8-8--8---10101010----12-10-12----|
|----5555-------------8-8-8-8-----10-8--10----|


|--------------------------------------------|
|--------------------------------------------|
|--------------------------------------------|
|----------10101010-------------------7------|
|----7777--8-8-8--8---10101010-----5--5------|
|----5555-------------8-8-8-8------3---------|

repeat a few times then theres a couras and some other
shit i havent figured out yet. if u have any questions, comments,
hate mail or death threats email me at spudvayne182@hotmail.com
Comments