Pennywise - I Get Around Punk Cover Chords & Tabs

 

I Get Around Punk Cover Chords & Tabs

Pennywise Chords & Tabs

Version: 1 Type: Tab 0 ratings
1 star 2 stars 3 stars 4 stars 5 stars
comments

I Get Around Punk Cover Tab

   
The greatest punk cover from Pennywise!!




INTRO/CHORUS
E|-----------|
B|-----------|
G|---------7-|
D|-5-2-7-3-7-| i only put the chords
A|-5-2-7-3-5-| not the strum patter.
E|-3-0-5-1---|

VERSE
E|---------|
B|---------|
G|---7---7-|
D|-5-7-7-7-| 
A|-5-5-7-5-| 
E|-3---5---|

SOLO/BRIDGE
-----------|--------------------------|---------------------------
-----------|--------------------------|---------------------------
-----------|--------------------------|-------9-------------------
-----------|----------------9---------|-12-9-----12----9----------
-------9---|-10----12-10-12-------10--|-------------------12-10---
-10-12-----|--------------------------|---------------------------

[ Tab from: http://www.guitartabs.cc/tabs/p/pennywise/i_get_around_punk_cover_tab.html ]
LINK:	        E7                                   A
	I get around, round, get around, round, wah-ooo


SOLO
A                  D
	/ / / /  / / / /   / / / /  / / / /

	A                  E7       F7
	/ / / /  / / / /   / / / /  / / / /



all the chords up 3 frets.

CHORUS
E|------------|
B|------------|
G|-----5---10-|
D|-8-5-5-6-10-| 
A|-8-5-3-6--8-| 
E|-6-3---4----|

SOLO/BRIDGE
-----------|--------------------------|---------------------------
-----------|--------------------------|---------------------------
-----------|--------------------------|-------10------------------
-----------|----------------10--------|-13-10----13----10---------
-------10--|-11----13-11-13-------11--|-------------------13-11---
-11-13-----|--------------------------|---------------------------


This is rhe correct tab. Let's fun!!!!!!!!
Comments